Oops, an error
Loading. Please wait.

I Walk The Line Tab

version 1
version 1

Whole song

151,020 views 60 this week
9 commentsread comments
1 2 3 4 5
worth learning
x 16
add to favorites
launch autoscroll
font size
0
reset
how to read this tab
guitar tuner
Autoscroll
slow
fast
+/-
esc
set tempo
stop
Help us to improve Ultimate-Guitar.com Take our survey!
×
Author
Difficulty
Capo
intermediate
1st fret
   Since the movie came out I figured some people would hear his music and get
interested so I decided to tab this out for you.  This doesn't have the chords
with it but I think this is pretty close to what Johnny Cash plays in his song.
I'm not sure about the part on the 4 fret of the E string and 2 fret of the A
string, let me know if you have a suggestion.

   This is NOT the opening, several people have that tabbed really well, this
starts with "I keep a close watch on this heart of mine", check out the into
tabs for the.......intro.

   I play this with Capo 1, I think it sounds better, play it open or with a
Capo on fret 1.

e--------------------------------------------------------------|
B--------------------------------------------------------------|
G--------------------------------------------------------------|
D---------------------------------------2----------------------|
A---2---2---2---2---2---2---2---------0---0-4-2-0---2----------|
E-2---2---0---0---2---2---0---0-0-2-4-------------4---4--------|

e-----------------------#--------------------------------------|
B-----------------------#--------------------------------------|
G-----------------------#--------------------------------------|
D-----------------------#--------0---0---0---0-----------------|(continue until verse)
A-0-------2---2-0---0---#0----------0---0---0---0--------------|
E---4-2-0---0-----4----0#--0-2-4-------------------------------|

e----------------------------------------------------------------|
B----------------------------------------------------------------|
G---------------------------------------2------------------------|
D---2---2---2---2---2---2---2---------0---0-4-2-0---2---0--------|
A-2--2----0---0---2---2---0---0-0-2-4-------------4---4---4-2----|
E----------------------------------------------------------------|

e----------------------------------------------------------------|
B----------------------------------------------------------------|
G----------------------------------------------------------------|
D--------------------------------2----2----Continue till verse)--|
A---2---2--0---0----0----------0---0----0------------------------|
E-0---0------4----0---0--2--4------------------------------------|

e--------------------------------------------------------------|
B--------------------------------------------------------------|
G-----------------------------------------2--------------------|
D----2---2---2---2---2---2---2----------0---0--4--2--0---2-----|
A--2---2---0---0---2---2---0---0--0-2-4----------------4---4---|
E--------------------------------------------------------------|

e---------------------------------------|
B---------------------------------------|
G---------------------------------------|
D-0-------------------------------------|
A---4--2----2---2--0-----0----0----0----|(go back to the start till # markers)
E---------0---0-------4----0-----0---0--|


    Really not to complicated, I would appreciate any suggestions because
playing back through it I dont think I have it quite right.

       Mr. Bones
Suggest correction
comments
print report bad tab
9 comments total. Showing first comments.
-1 reply
GYR91 10 wrote on March 20 2006, 05:05 pm

this really sucks balls

0 reply
xXNirvanaXx 10 wrote on April 3 2006, 04:41 pm

^^ then you tab a better one smart ass.

-1 reply
Milkman-BSL 10 wrote on April 26 2006, 05:50 pm

This one ... sucks.

guest
You may want to rate the tab now too:
select rating
Wanna post a correction for this tab? Suggest correction