Oops, an error
Loading. Please wait.
We have an official I Walk The Line tab made by UG professional guitarists. Check out the tab »
×
1,453,663 views 3,171 this week
39 commentsread comments
1 2 3 4 5
x 779
add to favorites
×
Save as Personal and add changes to this tab that will be seen only by you. Learn more ›
×
You can save this tab as Personal to edit and correct it or add notes. All changes will be seen only by you. Learn more »
launch autoscroll
font size
0
reset
transpose
0
reset
simplify chords
display chords
guitar tuner
backing track
0:00
0:00
edit
Autoscroll
slow
fast
+/-
esc
set tempo
stop
Strumming
There is no strumming pattern for this song yet. and get +5 IQ
[Intro]

e|-----------------------------|------------------------|
B|-----------------------------|------------------------|
G|-----------------------------|------------------------|
D|---------------------0-----0-|-0----------------------|
A|-------0-----0-0-2-4----0----|---4-2-0-----0-0--------|
E|-0-2-4----0------------------|----------0------4-2-0--|

e|--------------------------------|
B|--------------------------------|
G|--------------------------------|
D|-------------1------------------|
A|-2-2-------2-2-2-0--------2-----|
E|-----0-2-0---------4-2-0-----0--|   

(Either Johnny or his guitarist continues the two-note shuffle while the chords are):


[Verse 1]

         B7                           E
I keep a close watch on this heart of mine
          B7                     E
I keep my eyes wide open all the time.
           A                         E
I keep the ends out for the tie that binds
               B7               E
Because you're mine, I walk the line


(Then walk up to A)

E|----------|   
B|----------|   
G|----------|   
D|----------|                       
A|--------0-| 
E|--0-2-4---|   


[Verse 2]

          E7                    A 
I find it very, very easy to be true
          E7                         A
I find myself alone when each day is through
            D                  A
Yes, I'll admit that I'm a fool for you
               E7               A 
Because you're mine, I walk the line


(Then walk up to D)

E|----------|   
B|----------|   
G|----------| 
D|--------0-|
A|--0-2-4---|   
E|----------| 


[Verse 3]

            A7                      D
As sure as night is dark and day is light
           A7                      D
I keep you on my mind both day and night
          G                               D
And happiness I've known proves that it's right
              A7                D
Because you're mine, I walk the line


(Back down to A)

e|----------| 
B|----------| 
G|----------| 
D|--0-------|
A|----4-2-0-|  
E|----------| 


[Verse 4]

             E7                     A
You've got a way to keep me on your side
            E7                        A
You give me cause for love that I can't hide
           D                            A 
For you I know I'd even try to turn the tide
               E7               A
Because you're mine, I walk the line


(And back to E again)

E|----------|   
B|----------|   
G|----------|   
D|----------| 
A|-0--------|
E|---4-2-0--|


[Verse 4]

         B7                           E
I keep a close watch on this heart of mine
          B7                     E
I keep my eyes wide open all the time.
           A                         E
I keep the ends out for the tie that binds
               B7               E
Because you're mine, I walk the line


[Outro]

E|-------------------|   
B|-------------------|   
G|-------------------|   
D|-------------------| 
A|-2---2----2---2----|
E|---0----0---0------| 

(fade)

            
            
Suggest correction
Creating personal tab
Creating personal tab
You can edit any tab online and save it as your Personal.

You can edit, replace or remove any tab part or add personal notes – all changes will be seen only by you.

Personal tabs can be accessed anytime from any device, even offline.
Learn more »
comments
print report bad tab
39 comments total. Showing first comments.
+6 reply
wjoek 10 Aug 06, 2007 04:13 PM

good job, this is the only version that incorporates the key changes between the verses

+1 reply
alecj72450 30 Oct 13, 2007 09:46 AM

HOLY CRAP, i found the RIGHT intro, thanks alot dude.

+4 reply
Beavis2112 188 Mar 12, 2008 08:56 AM

I was really into 7th chords when I tabbed this. I play it with major chords for the most part. Don't know what I was thinking that day...

guest
You may want to rate the tab now too:
select rating
Wanna post a correction for this tab? Suggest correction