Oops, an error
Loading. Please wait.

Im Gonna Sit On The Porch And Pick On My Old Guitar tab

version 1
version 1

Whole song

3,114 views 1 this week
2 commentsread comments
1 2 3 4 5
2 more votes to show rating
add to favorites
×
Save as Personal and add changes to this tab that will be seen only by you. Learn more ›
×
You can save this tab as Personal to edit and correct it or add notes. All changes will be seen only by you. Learn more »
launch autoscroll
font size
0
reset
how to read this tab
guitar tuner
edit
Autoscroll
slow
fast
+/-
esc
set tempo
stop
Difficulty
I've never made a tab before, but this sounds pretty close to how it goes to me.  At 
it's something to work off of.  The verse uses a lot of the same notes as the intro, listen 
the song for the timing, good luck!

Standard Tuning EADGBE:

INTRO
E--------------------------------------------------|
B-----------0/2/0----------------------------------|
G--0-0------------0----0-----------------------0---|
D--2-3-5----------2----2-----------------------2---|
A------------------------5-3----5-3--------3-5-----|
E-----------------------------------5--------------|

E--------------------------|
B--------------------------|
G--0-0-------0-------------|
D--3-2-------2-------------|
A------5-------5-3-----3---|
E--------------------3-----|...

I'm gonna sit on my porch and pick on my old guitar
I'm gonna lay on my back and laugh at my lucky star
And then I'm gonna fly away and never come back someday
Unless I thought I was gonna land right close to where you are

Well if I thought anybody cared I'd send back word
Strapped to the leg of a transcelestial bird
I wonder if I really ever did leave
how many would there be to grieve
How would they react to the word


INTERLUDE BETWEEN VERSES
E--------------------------------------------------|
B-----------0/2/0----------------------------------|
G--0-0------------0----0-----------------------0---|
D--2-3-5----------2----2-----------------------2---|
A------------------------5-3----5-3--------3-5-----|
E-----------------------------------5--------------|

E--------------------------|
B--------------------------|
G--0-0------2--------------|
D--2-3-5------5------------|
A---------------5----0-1-2-|
E--------------------------|

E--------------------------------------------------|
B-----------0/2/0----------------------------------|
G--0-0------------0----0-----------------------0---|
D--2-3-5----------2----2-----------------------2---|
A------------------------5-3----5-3--------3-5-----|
E-----------------------------------5--------------|

E--------------------------|
B--------------------------|
G--0-0-------0-------------|
D--3-2-------2-------------|  (REPEAT INTERLUDE ONCE
A------5-------5-3-----3---|     BEFORE NEXT VERSE)
E--------------------3-----|

Well I wouldn't ever want to hurt a solitary soul
I have still got all 6'2 in control
But when my obligation's low is a greasy uphill road
And pleasin' everybody but me is my first goal
I want to sit on my porch and pick on my ol' guitar
And just hope your hangin' loose where ever you are
And for the joy you brought to me
this song I sung for thee
While I sit on my porch and pick on my ol' guitar


FINISH BY PLAYING THE INTERLUDE TWICE AGAIN
E--------------------------------------------------|
B-----------0/2/0----------------------------------|
G--0-0------------0----0-----------------------0---|
D--2-3-5----------2----2-----------------------2---|
A------------------------5-3----5-3--------3-5-----|
E-----------------------------------5--------------|

E--------------------------|
B--------------------------|
G--0-0------2--------------|
D--2-3-5------5------------|
A---------------5----0-1-2-|
E--------------------------|

E--------------------------------------------------|
B-----------0/2/0----------------------------------|
G--0-0------------0----0-----------------------0---|
D--2-3-5----------2----2-----------------------2---|
A------------------------5-3----5-3--------3-5-----|
E-----------------------------------5--------------|

E--------------------------|
B--------------------------|
G--0-0-------0-------------|
D--3-2-------2-------------|  (REPEAT ONCE)
A------5-------5-3-----3---|
E--------------------3-----|

Enjoy!

            
            
Suggest correction
Creating personal tab
Creating personal tab
You can edit any tab online and save it as your Personal.

You can edit, replace or remove any tab part or add personal notes – all changes will be seen only by you.

Personal tabs can be accessed anytime from any device, even offline.
Learn more »
Give kudos to tab author, rate the tab!
1 2 3 4 5
comments
print report bad tab
2 comments total.
0 reply
DannyG1025 75 Jan 16, 2013 12:26 PM

E--------------------------------------------------|
B--------------------------------------------------|
G--0-0------0/2/0-0----0-----------------------0---|
D--2-3-5----------2----2-----------------------2---|
A------------------------5-3----5-3--------3-5-----|
E-----------------------------------5--------------|

guest
Wanna post a correction for this tab? Suggest correction