Oops, an error
Loading. Please wait.

Ive Been Everywhere Bass Tab

7,311 views 6 this week
no commentswrite comment
1 2 3 4 5
please rate
add to favorites
launch autoscroll
font size
0
reset
guitar tuner
Autoscroll
slow
fast
+/-
esc
set tempo
stop
Help us to improve Ultimate-Guitar.com Take our survey!
×
Author
Difficulty
novice
Johnny Cash - I've Been Everywhere
Album Unchained from 1996?
Tuning: Standard E,A,D,G
listen to song 2 timing

 Verse 1
G|-------------------------------------------------------------------|
D|-------------------------------------------------------------------|
A|------------------2------------------------------------------------|
E|-0----5-----0----------0---0-2-4-----------------------------------|

Chorus
G|-------------------------------------------------------------------|
D|-------------------------------------------------------------------|
A|--------------------------------------------------2--2--2--2----2--|
E|-0--0--0--0--0--0--0--0---5--5--5--5--0--0--0--0--------------0---0|
  

 Verse 2
G|-------------------------------------------------------------------|
D|-------------------------------------------------------------------|
A|---------------------------------2-2-2-2-------2-------------------|
E|-0-0-0-0-0-0-0-0-5-5-5-5-0-0-0-0----------0-0-----0----------------|

Chorus
G|-------------------------------------------------------------------|
D|-------------------------------------------------------------------|
A|--------------------------------------------------2--2--2--2----2--|
E|-0--0--0--0--0--0--0--0---5--5--5--5--0--0--0--0--------------0---0|
  

Verse 3
G|-------------------------------------------------------------------|
D|-------------------------------------------------------------------|
A|---------------------------------2-2-2-2-------2-------------------|
E|-0-0-0-0-0-0-0-0-5-5-5-5-0-0-0-0----------0-0-----0----------------|

Chorus
G|-------------------------------------------------------------------|
D|-------------------------------------------------------------------|
A|--------------------------------------------------2--2--2--2----2--|
E|-0--0--0--0--0--0--0--0---5--5--5--5--0--0--0--0--------------0---0|
  

Verse 4
G|------------------------------------------------------------|
D|------------------------------------------------------------|
A|---------------------------------2-2-2-2--------------------|
E|-0-0-0-0-0-0-0-0-5-5-5-5-0-0-0-0----------0-0--0--0---------|

Chorus
G|-------------------------------------------------------------------|
D|-------------------------------------------------------------------|
A|--------------------------------------------------2--2--2--2----2--|
E|-0--0--0--0--0--0--0--0---5--5--5--5--0--0--0--0--------------0---0|
  

Verse 5
G|------------------------------------------------------|
D|-------------------------------------------------------|
A|---------------------------------2-2-2-2---------------|
E|-0-0-0-0-0-0-0-0-5-5-5-5-0-0-0-0----------0-0--0--0----|

Chorus
G|-------------------------------------------------------------------|
D|-------------------------------------------------------------------|
A|--------------------------------------------------2--2--2--2----2--|
E|-0--0--0--0--0--0--0--0---5--5--5--5--0--0--0--0--------------0---0|
  

Outro  repeat than fade out
G|----------------|
D|----------------|
A|----------------|
E|--0-0-0-0-------|
Suggest correction
Give kudos to tab author, rate the tab!
1 2 3 4 5
comments
print report bad tab
guest
You may want to rate the tab now too:
select rating
Wanna post a correction for this tab? Suggest correction