Oops, an error
Loading. Please wait.

Man In Black Bass Tab

136 views 9 this week
no commentswrite comment
1 2 3 4 5
3 more votes to show rating
add to favorites
launch autoscroll
font size
0
reset
guitar tuner
Autoscroll
slow
fast
+/-
esc
set tempo
stop
Help us to improve Ultimate-Guitar.com Take our survey!
×
Author
Difficulty
novice
About this tab version
I think this is the first one submitted. Was this info helpful? Yes No
  Intro:                     Well
G|----------------|----------------|
D|----------------|----------------|
A|1-------1-------|1-------1-------|
E|----1-------1---|----1-------1---|

  Verse:
  won der     I            dress      black                    why
G|----------------|----------------|----------------|----------------|
D|----------------|----------------|----------------|----------------|
A|1-------1-------|1-------1---1---|1-------1-------|3-------3-------|
E|----1-------1---|----1-----------|----1-------1---|----3-------3---|

G|----------------|----------------|----------------|----------------|
D|1-----------3---|1-----------3---|------------0---|3-------3-------|
A|----1---1-------|----1---1-------|3-------3-------|----3-------3---|
E|----------------|----------------|----3-----------|----------------|

G|----------------|----------------|----------------|----------------|
D|----3-------3---|----3-------3---|----3-------3---|----------------|
A|1-------1-------|1-------1-------|1-------1-------|3-------3-------|
E|----------------|----------------|----------------|----3-------3---|

G|----------------|----------------|----------------|----------------|
D|1-----------3---|1-----------3---|----------------|3-------3-------|
A|----1---1-------|----1---1-------|3-------3-------|----3-------3---|
E|----------------|----------------|----3-------3---|----------------|

  Verse:
G|----------------|----------------|----------------|----------------|
D|----------------|----------------|----------------|----------------|
A|1-------1-------|1-------1---1---|1-------1-------|3-------3-------|
E|----1-------1---|----1-----------|----1-------1---|----3-------3---|

G|----------------|----------------|----------------|----------------|
D|1-----------3---|1-----------3---|------------0---|3-------3-------|
A|----1---1-------|----1---1-------|3-------3-------|----3-------3---|
E|----------------|----------------|----3-----------|----------------|

G|----------------|----------------|----------------|----------------|
D|----3-------3---|----3-------3---|----3-------3---|----------------|
A|1-------1-------|1-------1-------|1-------1-------|3-------3-------|
E|----------------|----------------|----------------|----3-------3---|

G|----------------|----------------|----------------|----------------|
D|1-----------3---|1-----------3---|----------------|3-------3-------|
A|----1---1-------|----1---1-------|3-------3-------|----3-------3---|
E|----------------|----------------|----3-------3---|----------------|

  Verse:
G|----------------|----------------|----------------|----------------|
D|----------------|----------------|----------------|----------------|
A|1-------1-------|1-------1---1---|1-------1-------|3-------3-------|
E|----1-------1---|----1-----------|----1-------1---|----3-------3---|

G|----------------|----------------|----------------|----------------|
D|1-----------3---|1-----------3---|------------0---|3-------3-------|
A|----1---1-------|----1---1-------|3-------3-------|----3-------3---|
E|----------------|----------------|----3-----------|----------------|

G|----------------|----------------|----------------|----------------|
D|----3-------3---|----3-------3---|----3-------3---|----------------|
A|1-------1-------|1-------1-------|1-------1-------|3-------3-------|
E|----------------|----------------|----------------|----3-------3---|

G|----------------|----------------|----------------|----------------|
D|1-----------3---|1-----------3---|----------------|3-------3-------|
A|----1---1-------|----1---1-------|3-------3-------|----3-------3---|
E|----------------|----------------|----3-------3---|----------------|

  Verse:
G|----------------|----------------|----------------|----------------|
D|----------------|----------------|----------------|----------------|
A|1-------1-------|1-------1---1---|1-------1-------|3-------3-------|
E|----1-------1---|----1-----------|----1-------1---|----3-------3---|

G|----------------|----------------|----------------|----------------|
D|1-----------3---|1-----------3---|------------0---|3-------3-------|
A|----1---1-------|----1---1-------|3-------3-------|----3-------3---|
E|----------------|----------------|----3-----------|----------------|

G|----------------|----------------|----------------|----------------|
D|----3-------3---|----3-------3---|----3-------3---|----------------|
A|1-------1-------|1-------1-------|1-------1-------|3-------3-------|
E|----------------|----------------|----------------|----3-------3---|

G|----------------|----------------|----------------|----------------|
D|1-----------3---|1-----------3---|----------------|----------------|
A|----1---1-------|----1---1-------|3-------3-------|1-------1---1---| 
E|----------------|----------------|----3-------3---|----1-----------|
                                                                 Hold

Wikipedia describes this one as a protest song against the Viet Nam War
as well as other issues.  
Suggest correction
Give kudos to tab author, rate the tab!
1 2 3 4 5
comments
print report bad tab
guest
You may want to rate the tab now too:
select rating
Wanna post a correction for this tab? Suggest correction