Oops, an error
Loading. Please wait.

Mean Eyed Cat Bass Tab

825 views 3 this week
no commentswrite comment
1 2 3 4 5
please rate
add to favorites
launch autoscroll
font size
0
reset
guitar tuner
Tab Pro tools
  • play this tab
  • loop segment
  • change instrument
  • show fretboard
  • metronome
Autoscroll
slow
fast
+/-
esc
set tempo
stop
Contributor
Difficulty
novice
Johnny Cash - Mean Eyed Cat 
Unchained 1996 album
 
Tuning: Standard G,D,A,E
listen to song 4 timing

Verse 1
G|------------------------------------------------------------|
D|------------------------------------------------------------|
A|--------------------------------2-2-2-2---------------------|
E|-0-0-0-0-0-0-0-0-0-0-0-0-0-0-0-----------0-0-0-0-0-0-0-0----|

G|---------------------------------|
D|---------------------------------|
A|-0-0-0-0--2-2--------------------|
E|---------------0-0-0-0-----------|

Verse 2
G|------------------------------------------------------------|
D|------------------------------------------------------------|
A|--------------------------------2-2-2-2---------------------|
E|-0-0-0-0-0-0-0-0-0-0-0-0-0-0-0-----------0-0-0-0-0-0-0-0----|

G|---------------------------------|
D|---------------------------------|
A|-0-0-0-0--2-2--------------------|
E|---------------0-0-0-0-----------|

Chorus 1

G|-------------------------------------------------------------------|
D|-------------------------------------------------------------------|
A|------------------------------------------0-0-0-0-2-2-2-2----------|
E|-5-5-5-5-5-5-5-5-0-0-0-0-0-0-0-0-0-0-0-0------------------0-0-0-0--|

G|------------------|
D|------------------|
A|------------------|
E|-0-0-0-0----------|

Verse 3
G|------------------------------------------------------------|
D|------------------------------------------------------------|
A|--------------------------------2-2-2-2---------------------|
E|-0-0-0-0-0-0-0-0-0-0-0-0-0-0-0-----------0-0-0-0-0-0-0-0----|

G|---------------------------------|
D|---------------------------------|
A|-0-0-0-0--2-2--------------------|
E|---------------0-0-0-0-----------|

Chorus 2

G|-------------------------------------------------------------------|
D|-------------------------------------------------------------------|
A|------------------------------------------0-0-0-0-2-2-2-2----------|
E|-5-5-5-5-5-5-5-5-0-0-0-0-0-0-0-0-0-0-0-0------------------0-0-0-0--|

G|------------------|
D|------------------|
A|------------------|
E|-0-0-0-0----------|

Verse 4

G|------------------------------------------------------------|
D|------------------------------------------------------------|
A|--------------------------------2-2-2-2---------------------|
E|-0-0-0-0-0-0-0-0-0-0-0-0-0-0-0-----------0-0-0-0-0-0-0-0----|

G|---------------------------------|
D|---------------------------------|
A|-0-0-0-0--2-2--------------------|
E|---------------0-0-0-0-----------|

Chorus 3

G|-------------------------------------------------------------------|
D|-------------------------------------------------------------------|
A|------------------------------------------0-0-0-0-2-2-2-2----------|
E|-5-5-5-5-5-5-5-5-0-0-0-0-0-0-0-0-0-0-0-0------------------0-0-0-0--|

G|------------------|
D|------------------|
A|------------------|
E|-0-0-0-0----------|

comments
We did not receive enough feedback on this tab! Please rate:
print report bad tab
1 2 3 4 5
I want to post or [tab]
guest
You may want to rate the tab now too:
select rating
Please do not post tabs as comments. Select "correction" instead!