Oops, an error
Loading. Please wait.

Personal Jesus Bass Tab

version 1
version 1

Whole song

Interactive

15,408 views 51 this week
no commentswrite comment
1 2 3 4 5
accurate
x 3
add to favorites
launch autoscroll
font size
0
reset
guitar tuner
Autoscroll
slow
fast
+/-
esc
set tempo
stop
Help us to improve Ultimate-Guitar.com Take our survey!
×
Author
Difficulty
intermediate
Made this bass tab by ear, there were much requests for it. Only missing a little 
but it's easy to improvise by that.

Verse:
G|------------|-------------|-------------|-------------|
D|------------|-------------|-------------|-------------|
A|--------7---|---------7---|---------7---|---------7---|
E|-0-0-3h5----|-00-0-3h5----|-00-0-3h5----|-00-0-3h5----|


Change in the verse:
G|----------|-------------|
D|--------7-|77-555-444---|
A|-0-0-3h5--|-------------|
E|----------|-------------|
Suggest correction
Give kudos to tab author, rate the tab!
1 2 3 4 5
comments
print report bad tab
guest
You may want to rate the tab now too:
select rating
Wanna post a correction for this tab? Suggest correction