Oops, an error
Loading. Please wait.

Personal Jesus Tab

version 1
version 1

Interactive

230,172 views 150 this week
7 commentsread comments
1 2 3 4 5
accurate
x 16
add to favorites
launch autoscroll
font size
0
reset
how to read this tab
guitar tuner
Autoscroll
slow
fast
+/-
esc
set tempo
stop
Help us to improve Ultimate-Guitar.com Take our survey!
×
Author
[Intro]

e|--------------------------------------------------------------------------|
B|--------------------------------------------------------------------------|
G|--------------------------------------------------------------------------|
D|-2-------2-----2---2------2--------2--------2----2-----2-----2------------| x2
A|-2-----2-------2---2---2-----------2------2------2-----2---2--------------|
E|-0---3-0-----3-0---0-3-0-----3-----0----3-0----3-0-----0-3-0----3---------|


[Verse A] 

e|--------------------------------------------------------------------------|
B|--------------------------------------------------------------------------|
G|--------------------------------------------------------------------------|
D|-2-------2-----2---2-----2---------2--------2----2-----2-----2------------|
A|-2-----2-------2---2---2-----------2------2------2-----2---2--------------|
E|-0---3-0-----3-0---0-3-0-----3-----0----3-0----3-0-----0-3-0----3---------|
                                                                                x2
e|--------------------------------------------------------------------------|
B|----------------------------------------------1---------------------------|
G|----------------------------------------2-------2----------0--------3-----|
D|-2-------2-----2---2-----2------------------------2--------0--------4-----|
A|-2-----2-------2---2---2-----------0--------0-----------2--2-----4--4-----|
E|-0---3-0-----3-0---0-3-0-----3-----------------------3-----3---2----2-----|


[Bridge]

e|--------------------------------------------------------------------------|
B|--------------------------------------------------------------------------|
G|--------------------------------------------------------------------------|
D|-2-------2-----2---2-----2---------2--------2----2-----2-----2------------|
A|-2-----2-------2---2---2-----------2------2------2-----2---2--------------|
E|-0---3-0-----3-0---0-3-0-----3-----0----3-0----3-0-----0-3-0----3---------|


[Verse B]

e|-----------------------------------3----3---3---3---3---3---3-------------|
B|-----------------------------------0----0---0---0---0---0---0-------------|
G|-----------------------------------0----0---0---0---0---0---0-------------|
D|-2-------2-----2---2-----2---------0----0-----------0-------0-------------|
A|-2-----2-------2---2---2-----------2----2-----------2-------2-------------|
E|-0---3-0-----3-0---0-3-0-----3-----3----3-----------3-------3-------------|
                                                                                x2
e|-0----0---0---0---0---0----0----0---0---0---0---0---0---------------------|
B|-1----1---1---1---1---1----1----1---1---1---1---1---1-------0-0---1-1-----|
G|-2----2---2---2---2---2----0----0---0---0---0---0---0-------0-0---0-0-----|
D|-2----2-----------2--------2----2-----------2-------2-------2-2-2-2-2-----|
A|-0----0-----------0--------0----0-----------0-------0---2---2-2-3---------|
E|--------------------------------------------------------0-----------------|


[Chorus]

e|--------------------------------------------------------------------------|
B|--------------------------------------------------------------------------|
G|--------------------------------------3--3---------2--2-----2-------------|
D|-2-------2-----2---2-----2------------4--4---------3--3-----3-------------| x2
A|-2-----2-------2---2---2----------4-4-4--4---------3--3-----3-------------|
E|-0---3-0-----3-0---0-3-0-----3----2-2-2--2---2-2---1--1-----1-------------|


[Bridge]

e|--------------------------------------------------------------------------|
B|--------------------------------------------------------------------------|
G|--------------------------------------------------------------------------|
D|-2-------2-----2---2-----2---------2--------2----2-----2-----2------------|
A|-2-----2-------2---2---2-----------2------2------2-----2---2--------------|
E|-0---3-0-----3-0---0-3-0-----3-----0----3-0----3-0-----0-3-0----3---------|


[Verse A]

e|--------------------------------------------------------------------------|
B|--------------------------------------------------------------------------|
G|--------------------------------------------------------------------------|
D|-2-------2-----2---2-----2---------2--------2----2-----2-----2------------|
A|-2-----2-------2---2---2-----------2------2------2-----2---2--------------|
E|-0---3-0-----3-0---0-3-0-----3-----0----3-0----3-0-----0-3-0----3---------|
                                                                                x2
e|--------------------------------------------------------------------------|
B|----------------------------------------------1---------------------------|
G|----------------------------------------2-------2----------0--------3-----|
D|-2-------2-----2---2-----2------------------------2--------0--------4-----|
A|-2-----2-------2---2---2-----------0--------0-----------2--2-----4--4-----|
E|-0---3-0-----3-0---0-3-0-----3-----------------------3-----3---2----2-----|


[Bridge]

e|--------------------------------------------------------------------------|
B|--------------------------------------------------------------------------|
G|--------------------------------------------------------------------------|
D|-2-------2-----2---2-----2---------2--------2----2-----2-----2------------|
A|-2-----2-------2---2---2-----------2------2------2-----2---2--------------|
E|-0---3-0-----3-0---0-3-0-----3-----0----3-0----3-0-----0-3-0----3---------|


[Verse B]

e|-----------------------------------3----3---3---3---3---3---3-------------|
B|-----------------------------------0----0---0---0---0---0---0-------------|
G|-----------------------------------0----0---0---0---0---0---0-------------|
D|-2-------2-----2---2-----2---------0----0-----------0-------0-------------|
A|-2-----2-------2---2---2-----------2----2-----------2-------2-------------|
E|-0---3-0-----3-0---0-3-0-----3-----3----3-----------3-------3-------------|

e|-0----0---0---0---0---0----0----0---0---0---0---0---0---------------------|
B|-1----1---1---1---1---1----1----1---1---1---1---1---1-------0-0---1-1-----|
G|-2----2---2---2---2---2----0----0---0---0---0---0---0-------0-0---0-0-----|
D|-2----2-----------2--------2----2-----------2-------2-------2-2-2-2-2-----|
A|-0----0-----------0--------0----0-----------0-------0---2---2-2-3---------|
E|--------------------------------------------------------0-----------------|


[Chorus]

e|--------------------------------------------------------------------------|
B|--------------------------------------------------------------------------| 
G|--------------------------------------3--3---------2--2-----2-------------| x2
D|-2-------2-----2---2-----2------------4--4---------3--3-----3-------------|
A|-2-----2-------2---2---2----------4-4-4--4---------3--3-----3-------------|
E|-0---3-0-----3-0---0-3-0-----3----2-2-2--2---2-2---1--1-----1-------------|


[Outro]

e|----------------------------------------------0--------(0)-----------0----|
B|-------------------------------------------1------------------------------|
G|-3-------3-------2-------2--------------2---------------------------------|
D|-4-------4-------3-------3-----------2------------------------------------|
A|-4-------4-------3-------3--------0---------------------------------------|
E|-2-------2-------1-------1------------------------------------------------|


************************************

| x    Dead note
| (n)  Ghost note

************************************
Suggest correction
What's this?
You can suggest a correction to this tab. Community and Mods will review your correction and vote to approve or reject it.
comments
print report bad tab
7 comments total. Showing first comments.
0 reply
darkiii 352 wrote on February 19 2007, 07:23 pm

great tab... i've only seen the 1st part but its it nice :)

0 reply
wyostrummer27 30 wrote on February 25 2007, 01:13 am

AMAZING! gratz brother, i love it

0 reply
kryptonite22 2,832 wrote on March 25 2007, 11:02 am

nice it sounds good

guest
You may want to rate the tab now too:
select rating
Please do not post tabs as comments. Select "correction" instead!