Oops, an error
Loading. Please wait.
We have Chord Pro version of Personal Jesus.
It's the closest thing you can get to the original song and it has interactive parts. Check out the tab »
×
97,543 views 27 this week
2 commentsread comments
1 2 3 4 5
x 12
add to favorites
launch autoscroll
font size
0
reset
how to read this tab
guitar tuner
Autoscroll
slow
fast
+/-
esc
set tempo
stop
Difficulty
intermediate
Artist: Johnny Cash
Title:  Personal Jesus

#--------------------------------PLEASE NOTE--------------------------------#
#  This file is the author's own work and represents their interpretation   #
#  of the song. You may only use this file for private study, scholarship,  #
#  or research. This file may not be licensed, sold, or reproduced in a     #
#  public performance without the copyright holder's explicit permission.   #
#---------------------------------------------------------------------------#

Main riff: You're own....
E-----------------------|
B-----------------------|
G-----------------------|
D---------2---2-2-----2-|
A-----------------------|
E---0-3-0-0-3-0-0-3-0-0-|


...someone who cares
E-----------------------------|
B----------------3-3-3--3-3-3-|
G----------------0-0-0--0-0-0-|
D--------2---2----------------|
A--0-3-0---3------------------|
E--------------3-------2------|


Then it's the first riff on "Feeling unknown..." and then

...flesh and bone..."
E---3--3--3--3---2--2--2--2-|
B---3--3--3--3---3--3--3--3-|
G---0--0--0--0---2--2--2--2-|
D---0--0--0--0---0--0--0--0-|
A---2--2--2--2--------------|
E---3--3--3--3--------------|


"...lift up the receiver..."
E---0-0-0---0--0-------------|
B---1-1-1---0--0-------------|
G---2-2-2---0--0-------------|
D----------------------2---2-|
A-0-------2---3--------------|
E-----------------0-3-0--3---|


"...Reach out and...."
E--0-0-0---0-0-0--------------|
B--2-2-2---1-1-1--------------|
G--3-3-3---2-2-2--------------|
D--4-4-4---3-3-3--------------|
A--4-4-4---3-3-3--------2---2-|
E-----------------0-3-0---0---|
Suggest correction
comments
print report bad tab
2 comments total.
0 reply
Ghostrelm` 10 Aug 13, 2008 02:00 AM

This is the best version. Its really quite simple. Just figure out the timing on your own.

0 reply
20Tigers [m] 50 Jul 22, 2011 05:51 PM

As a guitarist I found it interesting that the acoustic guitar in this song (tabbed here) is played on the recording by John Frusciante

guest
You may want to rate the tab now too:
select rating
Wanna post a correction for this tab? Suggest correction