Oops, an error
Loading. Please wait.

Ridin On The Cotton Belt bass

88 views 1 this week
no commentswrite comment
1 2 3 4 5
3 more votes to show rating
add to favorites
×
Save as Personal and add changes to this tab that will be seen only by you. Learn more ›
×
You can save this tab as Personal to edit and correct it or add notes. All changes will be seen only by you. Learn more »
launch autoscroll
font size
0
reset
guitar tuner
edit
Autoscroll
slow
fast
+/-
esc
set tempo
stop
Tabbed by: 6METAL6BASSIST6
E-mail: petergriffinav@gmail.com

Tuning: EADG

0:34

G|------------------------------------------------|
D|------------------------------------------------|
A|--------8---------------8---------------8-------|
E|6---------------6---------------6---------------|

G|----------------------------------------------------------------|
D|----------------------------------------------------------------|
A|--------8---------------8---------------8---------------8-------|
E|6---------------6---------------6---------------6---------------|

G|--------------------------------|
D|--------------------------------|
A|--------8---------------8-------|
E|6---------------6---------------|

G|----------------------------------------------------------------|
D|----------------------------------------------------------------|
A|6---------------6---------------6---------------6---------------|
E|--------6---------------6---------------6---------------6-------|

G|----------------------------------------------------------------|
D|----------------------------------------------------------------|
A|6-------------6-6-------6---------------8---------------8-------|
E|--------6-----------------------6---------------6---------------|

G|----------------------------------------------------------------|
D|----------------------------------------------------------------|
A|--------8---------------8---------------8---------------8-------|
E|6---------------6---------------6---------------6---------------|

1:03

G|----------------------------------------------------------------|
D|----------------------------------------------------------------|
A|6-------6-------8---------------8---------------8---------------|
E|------------------------8---------------8---------------8-------|

G|----------------------------------------------------------------|
D|----------------------------------------------------------------|
A|--------8---------------8-------6---------------6---------------|
E|6---------------6-----------------------6---------------6-------|

G|----------------------------------------------------------------|
D|----------------------------------------------------------------|
A|6---------------6-------6---------------8---------------8-------|
E|--------6-----------------------6---------------6---------------|

G|--------------------------------|
D|--------------------------------|
A|--------8-------------------5---|
E|6---------------6-------8-------|

G|----------------------------------------------------------------|
D|----------------------------------------------------------------|
A|6---------------6---------------6---------------6-------6-------|
E|--------6---------------6---------------6-----------------------|

G|----------------------------------------------------------------|
D|----------------------------------------------------------------|
A|--------5---6---8-------8---------------8---------------8-------|
E|6-------------------------------6---------------6---------------|

1:34

G|----------------------------------------------------------------|
D|----------------------------------------------------------------|
A|--------8---------------8---------------8---------------8-------|
E|6---------------6---------------6---------------6---------------|

G|--------------------------------|
D|--------------------------------|
A|--------8---------------8-------|
E|6---------------6---------------|

G|----------------------------------------------------------------|
D|----------------------------------------------------------------|
A|6---------------6---------------6---------------6---------------|
E|--------6---------------6---------------6---------------6-------|

G|----------------------------------------------------------------|
D|----------------------------------------------------------------|
A|6-------------6-6-------6---------------8---------------8-------|
E|--------6-----------------------6---------------6---------------|

G|----------------------------------------------------------------|
D|----------------------------------------------------------------|
A|--------8---------------8---------------8---------------8-------|
E|6---------------6---------------6---------------6---------------|

1:58

G|----------------------------------------------------------------|
D|----------------------------------------------------------------|
A|6-------6-------8---------------8---------------8-------8-------|
E|------------------------8---------------8-----------------------|

G|----------------------------------------------------------------|
D|----------------------------------------------------------------|
A|--------8---------------8-------6---------------6---------------|
E|6---------------6-----------------------6---------------6-------|

G|----------------------------------------------------------------|
D|----------------------------------------------------------------|
A|6---------------6-----------------------8---------------8-------|
E|--------6---------------6-------6---------------6---------------|

G|--------------------------------|
D|--------------------------------|
A|--------8---------------8-------|
E|6---------------6---------------|

G|----------------------------------------------------------------|
D|----------------------------------------------------------------|
A|6---------------6---------------6-------------6-6-------6-------|
E|--------6---------------6---------------6-----------------------|

G|----------------------------------------------------------------|
D|----------------------------------------------------------------|
A|--------5-------8-------8---------------8---------------8-------|
E|6-------------------------------6---------------6---------------|

2:27

G|----------------------------------------------------------------|
D|----------------------------------------------------------------|
A|--------8---------------8---------------8---------------8-------|
E|6---------------6---------------6---------------6---------------|

G|--------------------------------|
D|--------------------------------|
A|--------8---------------8-------|
E|6---------------6---------------|

G|----------------------------------------------------------------|
D|----------------------------------------------------------------|
A|6---------------6---------------6---------------6---------------|
E|--------6---------------6---------------6---------------6-------|

G|----------------------------------------------------------------|
D|----------------------------------------------------------------|
A|6-------------6-6-------6---------------8---------------8-------|
E|--------6-----------------------6---------------6---------------|

G|----------------------------------------------------------------|
D|----------------------------------------------------------------|
A|--------8---------------8---------------8---------------8-------|
E|6---------------6---------------6---------------6---------------|

2:51

G|----------------------------------------------------------------|
D|----------------------------------------------------------------|
A|6-------6-------8---------------8---------------8-------8-------|
E|------------------------8---------------8-----------------------|

G|----------------------------------------------------------------|
D|----------------------------------------------------------------|
A|--------8---------------8-------6---------------6---------------|
E|6---------------6-----------------------6---------------6-------|

G|----------------------------------------------------------------|
D|----------------------------------------------------------------|
A|6---------------6-----------------------8---------------8-------|
E|--------6---------------6-------6---------------6---------------|

G|--------------------------------|
D|--------------------------------|
A|--------8---------------8-------|
E|6---------------6---------------|

G|----------------------------------------------------------------|
D|----------------------------------------------------------------|
A|6---------------6---------------6-------------6-6-------6-------|
E|--------6---------------6---------------6-----------------------|

G|----------------------------------------------------------------------|
D|----------------------------------------------------------------------|
A|--------5---------8---------8-----------------------8-----------------|
E|6---------------------------------------6-------------------------6---|
Suggest correction
Creating personal tab
Creating personal tab
You can edit any tab online and save it as your Personal.

You can edit, replace or remove any tab part or add personal notes – all changes will be seen only by you.

Personal tabs can be accessed anytime from any device, even offline.
Learn more »
Give kudos to tab author, rate the tab!
1 2 3 4 5
comments
print report bad tab
guest
You may want to rate the tab now too:
select rating
Wanna post a correction for this tab? Suggest correction