Oops, an error
Loading. Please wait.

Ring Of Fire Bass Tab

version 1
version 1

Whole song

Interactive

62,750 views 105 this week
no commentswrite comment
1 2 3 4 5
accurate
x 8
add to favorites
launch autoscroll
font size
0
reset
guitar tuner
Autoscroll
slow
fast
+/-
esc
set tempo
stop
Help us to improve Ultimate-Guitar.com Take our survey!
×
Standard Tuning
Tab by Timmy A. (NNM)  6-14-2009   I LOVE YOU CARI!!!!!!!!!!!

INTRO
G---------------------|-----------------------|
D--5--------5----5----|-5---5---5----5--------|
A-----5--3----5-----5-|-------5----5----5-----|         X2
E---------------------|-----------------------|

1st VERSE
G---------------------|------------------------|
D-5----5----5--5----5-|----5-----5----5----5---|
A---5----3--------3---|--5----5----5-----5-----|
E---------------------|------------------------|


G----------------------|-------------------------------------|
D-5--5-----5-----5-----|---5----5-----5--------5-----5-------|
A-------5-----5-----5--|------5----3----5---3-----5-----5----|
E----------------------|-------------------------------------|

G-----------------|-----------|
D--5--5----5----5-|--5--4---2-|
A-------5-----5---|-----------|
E-----------------|-----------|

CHORUS
G---------------------------------|
D-----------------------5--4--2---|
A--5-----5--0--2--3--3------------|
E-----5---------------------------|

G-------------------------|---------------------------------|
D---------------------5---|-5----5---5---5---5----5-----5---|
A-5---5--0--2--3--3-----5-|---5---5----3 ---5---5----5------|
E---5---------------------|---------------------------------|

G----------------|
D---0---2---3----|
A----------------|      PLAY INTRO
E----------------|

G-----------------------------------------------|
D---5--4--2--------------------------5--4--2----|
A------------5----5---0---2--3---3--------------|
E---------------5-------------------------------|

G--------------------------|----------------------------------|
D----------------------5---|-5----5----5----5----5----5----5--|
A-5----5--0--2--3--3-----5-|---5----5----3----5----5----5-----|
E----5---------------------|----------------------------------|

G-----------------|
D---0---2---3-----|
A-----------------|      PLAY INTRO
E-----------------|

PLAY CHORUS

2nd VERSE
G----------------------------------------------|
D--5----5----5--5-----5----5----5----5----5----|
A----5----3--------3-----5----5----5----5------|
E----------------------------------------------|

G---------------------|--------------------------------|
D--5--5----5----5-----|-5------5-------5----5----5-----|
A--------5----5----5--|---2--3----5--3----5----5----5--|
E---------------------|--------------------------------|


G-------------------------|
D--5---5----5--5--4--2----|
A----5----5---------------|
E-------------------------|

CHORUS TWICE (Note the extension on the second time through the chorus)

OUTRO
G-------------------|--------------|
D--5------5---5-----|-5--5-----5---|
A----5--3---5----5--|-------5------|
E-------------------|--------------|

Tab by Timmy A. (NNM)  6-14-2009   I LOVE YOU CARI!!!!!!!!!!!
comments
print report bad tab
I want to post or [tab]
guest
You may want to rate the tab now too:
select rating
Please do not post tabs as comments. Select "correction" instead!