Oops, an error
Loading. Please wait.

Rose Of My Heart tab

5,640 views 15 this week
no commentswrite comment
1 2 3 4 5
3 more votes to show rating
add to favorites
×
Save as Personal and add changes to this tab that will be seen only by you. Learn more ›
×
You can save this tab as Personal to edit and correct it or add notes. All changes will be seen only by you. Learn more »
launch autoscroll
font size
0
reset
how to read this tab
guitar tuner
edit
Autoscroll
slow
fast
+/-
esc
set tempo
stop
Author
                               Johnny Cash - Rose of My Heart


This tab probably isn't quite perfect, but it's not far off!
I tried to make it as easy to read as possible. There's actually a lot going on 
for such a simple song!

Guitar 1 plays the chords.
Guitar 2 is the top line of tab, and comes out of the left speaker.
Guitar 3 is the second line of tab, and comes out of the right speaker.
Guitar 4 is on the bottom, and begins about half way through coming out of the left speaker.


Intro
"""""
  Guitar 1
    C                   F                 G                    C
    
  Guitar 2
||-------------------|-----------------|--------------------|----------8------|
||--8------8--6--5---|--6--------------|----------0---------|-----------------|
||--9------9--7--5---|-----------------|--7------10---------|---9-------------|
||-------------------|--7--------------|--------------------|--10-------------|
||-------------------|-----------------|--8-----------------|-----------------|
||-------------------|-----------------|--------------------|-----------------|
||Guitar 3                                                                    |
||----------------0--|-----------------|--------------------|-----------------|
||--1-------1--3-----|-----------------|--------------------|--1--------------|
||-------0-----------|--2--------0--2--|--0------0h-2-4--0--|-----------------|
||-------------------|-----------------|--------------------|-----------------|
||-------------------|-----------------|--------------------|-----------------|
||-------------------|-----------------|--------------------|-----------------|


Verse 1
"""""""
   C                    F          C         G                    C
|--------------------|--------------------|--------------------|--------------------|
|--------------------|--------------------|--------------------|--------------------|
|---9----------------|--10---------9------|--7-----------------|---9----------------|
|--10----------------|--10--------10------|--9-----------------|--10----------------|
|--------------------|--------------------|--------------------|--------------------|
|--------------------|--------------------|--------------------|--------------------|
|                                                                                   |
|--------------------|--------------------|--------------------|--------------------|
|--1--------1--------|---------1----------|-----------3--------|--1--------1--3--1--|
|--------0-----0-----|--0h-2------0-------|--------0-----0-----|-----0--------------|
|-----2-----------2--|-----------------2--|-----0-----------0--|--------2-----------|
|--------------------|--------------------|--------------------|--------------------|
|--------------------|--------------------|--3-----------------|--------------------|


   C                    F                    C                    G
|--------------------|--------------------|--------------------|--------------------|
|--8--------8--6--5--|--6-----------------|--------------------|--------------------|
|--9--------9--7--5--|--------------------|---9----------------|--7-----------------|
|--------------------|--7-----------------|--10----------------|--9-----------------|
|--------------------|--------------------|--------------------|--------------------|
|--------------------|--------------------|--------------------|--------------------|
|                                                                                   |
|-----------3--1--0--|--1-----------------|--------------0-----|--------------------|
|--------1-----------|-----------------1--|--1--------3-----1--|-----------3--------|
|-----0--------------|--2--2-----2--------|-----0--------------|--0-----0-----0-----|
|--2-----------------|--------3-----3-----|--------2-----------|-----0-----------0--|
|--------------------|--------------------|--------------------|--------------------|
|--------------------|--------------------|--------------------|--------------------|


Chorus 1
""""""""
   C                     F                       G                     C
|---------------------|-----------------------|---------------------|--------------------|
|---------------------|-----------------------|---------------------|--------------------|
|---------9--------9--|--------10-------10----|--------7-----7------|--------9--------9--|
|-----10-------10-----|-----10-------10-------|-----9-----------9---|-----10-------10----|
|---------------------|-----------------------|---------------------|--------------------|
|---------------------|-----------------------|---------------------|--------------------|
|                                                                                        |
|-----------------0---|--1--------1-----------|---------------------|--------------------|
|--1--------1--3------|-----------------------|--0--------0-----0---|--1--------1--------|
|-----0---------------|--2--2-----2--2--------|-----0--------2------|-----0--------0-----|
|--------2------------|--------3--------3-----|--------0------------|--------2--------2--|
|---------------------|-----------------------|---------------------|--------------------|
|---------------------|-----------------------|--3------------------|--------------------|


   C                     F                       C                     G
|---------------------|-----------------------|---------------------|--------------------|
|---------------------|-----------------------|---------------------|-----------8--------|
|--------9--------9---|--------10--------10---|--------9--------9---|--------7-----7-----|
|-----10-------10-----|-----10--------10------|-----10-------10-----|-----9-----------9--|
|---------------------|-----------------------|---------------------|--------------------|
|---------------------|-----------------------|---------------------|--------------------|
|                                                                                        |
|--3--------3--1--0---|--1--------------------|-----------------0---|--------------------|
|--1--1-----1---------|-----------------------|--1--------1--3------|--1-----------1--0--|
|--------0------------|--2--2-----2-----------|-----0---------------|-----0--------------|
|---------------------|--------3--------------|--------2------------|--------2-----------|
|---------------------|-----------------------|---------------------|--------------------|
|---------------------|-----------------------|---------------------|--------------------|


Interlude
"""""""""
   C                    F                   C                    G
|--------------------|-------------------|--------------------|-------------------|
|--------6--8--6-----|--6----6---6-------|--5--------5--------|--3----0--1--------|
|-----9--7--9--7--9--|-------------------|--------------------|-------------------|
|----10----------10--|--7----7---7-------|--5-------/5--------|--3----0--2--------|
|--------------------|-------------------|--------------------|-------------------|
|--------------------|-------------------|--------------------|-------------------|
|                                                                                 |
|--------0--0--------|-------------------|--------------------|-------------------|
|--1-----1--1--3--1--|-------------------|-----------------1--|----------------0--|
|-----0--------------|--0h2---2--0h2-0---|-------0------0-----|--0-------0--2-----|
|--------------------|-------------------|--2-------0h2-------|-------0-----------|
|--------------------|-------------------|--------------------|-------------------|
|--------------------|-------------------|--------------------|-------------------|


Verse 2
"""""""
   C                    F       C           G                    C
|--8-----------------|--1-------0--------|--------------------|--0-----8-----------|
|--------------------|--1-------1--------|--0-----------------|--1---------8-------|
|--------------------|--2-------0--------|--0-----------------|--0-----9-----------|
|--------------------|--3-------2--------|--0-----------------|--2--------10-------|
|--------------------|--3-------3--------|--2-----------------|--3-----------------|
|--------------------|--1----------------|--3-----------------|--------------------|
|                                                                                  |
|-----------0-----0--|--1----1-----------|--------------0--1--|-----------------0--|
|--1-----------3-----|----------1--------|--0--------3--------|--1--------1--3-----|
|-----0--------------|--2----2-----0-----|-----0-----4--------|-----0--------------|
|--------2-----------|----------------2--|--------0-----------|--------2-----------|
|--------------------|-------------------|--------------------|--------------------|
|--------------------|-------------------|--------------------|--------------------|


    C                   F                  C                   G
|---8----------------|---------5--------|-------------------|--3-----------------|
|---8----------------|--6------6--------|--5----------------|--3-----------------|
|---9----------------|--5------5--------|--5----------------|--4-----------------|
|--10----------------|--7------7--------|--5----------------|--5-----------------|
|--10----------------|--8------8--------|--3----------------|--5-----------------|
|---8----------------|------------------|-------------------|--------------------|
|                                                                                |
|--3--------3--1--0--|--1---------------|--0-------0--------|--------------------|
|--1--1--------------|--1-------1-------|----------1--3--1--|--0--------------3--|
|--------0-----------|--2----2--2--2----|-------0-----------|-----0--------4-----|
|--------------------|------------------|-------------------|--------0--5--------|
|--------------------|------------------|-------------------|--------------------|
|--------------------|------------------|-------------------|--------------------|


Chorus 2
""""""""
   C                    F                     G                    C
|--------0--3-----0--|--1----1----1--------|-----------3--------|--------------------|
|--------------------|---------------------|--------------3-----|-----5--6--8--6--5--|
|--------------------|--2---------2--------|--0--------------4--|--5--5--7--9--7--5--|
|--2-----------------|---------------------|--0-----------------|--5-----------------|
|--------------------|---------------------|--------------------|--------------------|
|--------------------|---------------------|--------------------|--------------------|
|                                                                                    |
|--0--------0--------|---------------------|--------------------|-----------0--------|
|-----1--------1-----|---------------1-----|-----------3--------|--1--------1--1-----|
|--------0--------0--|--------2--0h2----2--|-----4--------4-----|-----0-----------0--|
|--------------------|-----3---------------|--5-----5--------5--|--------2-----------|
|--3-----------------|--3------------------|--------------------|--------------------|
|--------------------|---------------------|--------------------|--------------------|
|Guitar 4                                                                            |
|--------------------|---------------------|--------------------|--------------------|
|--------1-----1-----|--------1------1-----|-----0--------3--0--|--------------------|
|-----0-----------0--|-----2------------2--|--------0-----------|-----0--------0-----|
|--------------------|---------------------|--------------------|--------2--------2--|
|--------------------|---------------------|--------------------|--------------------|
|--------------------|---------------------|--------------------|--------------------|


   C                    F                     C                    G
|--------1--3-----0--|--1----1---1---------|--0--------0--------|-------------------|
|--------------------|---------------------|--------------------|----------3--0-----|
|--0-----------------|--2--------2---------|--0--------0--------|--0-------------0--|
|--2-----------------|--3--------3---------|--2--------2--------|--0----------------|
|--------------------|---------------------|--------------------|-------------------|
|--------------------|---------------------|--------------------|-------------------|
|                                                                                   |
|--3--------3--1--0--|--1-----1--1------1--|--0--------0--------|-------------------|
|-----1-----------1--|---------------1-----|-----------1--3--1--|--3-------0--1--3--|
|--------0-----0-----|--2-----2--0h2----2--|--0-----------0-----|-------------------|
|-----------2--------|-----3---------------|--------2--------2--|-------------------|
|--3-----------------|---------------------|-----3--------------|-------------------|
|--------------------|---------------------|--------------------|--3----------------|
|                                                                                   |
|--------------------|---------------------|--------------------|-------------------|
|--------1-----1-----|--------1------1-----|--------1-----1-----|--------0----0-----|
|-----0-----------0--|-----2------------2--|-----0-----------0--|-----0----------0--|
|--------------------|---------------------|--------------------|-------------------|
|--------------------|---------------------|--------------------|-------------------|
|--------------------|---------------------|--------------------|-------------------|


Interlude 2
"""""""""""
      C                      F                      C                    G
|-----8--10--10/12\10--8--|----------------------|--------------------|----------------------|
|-------------------------|--10------/10---------|---8-------8--/8----|--6\---3--3-----------|
|-----9--10--10/12\10--9--|----------------------|---9-------9--/9----|--7\---4--4-----------|
|-------------------------|--10------/10---------|--10------10-/10----|--9\---5--5-----------|
|-------------------------|----------------------|--------------------|----------------------|
|-------------------------|----------------------|--------------------|----------------------|
|                                                                                            |
|--------3----3----0------|--1-------------------|-----------0--------|----------------------|
|--1--1------------1------|----------------1--3--|--1--------------1--|----------------0-----|
|--------0-------------0--|--2-----2--0h2--------|-----0--0-----------|--0----0--0h2------0--|
|-------------------------|-----3----------------|--------------------|----------------------|
|-------------------------|----------------------|--------------------|----------------------|
|-------------------------|----------------------|--------------------|----------------------|
|                                                                                            |
|-----3------------3------|-----3----------3-----|-----3--------3-----|----3-----------------|
|--------1---------1------|--------1-------1-----|--------1-----1-----|-------0-----------0--|
|-----0----------------0--|-----2-------------2--|-----0-----------0--|----0-----------2-----|
|-------------------------|----------------------|--------------------|----------------------|
|-------------------------|----------------------|--------------------|----------------------|
|-------------------------|----------------------|--------------------|----------------------|
   

Verse 3
"""""""
   C                    F        C           G                    C
|--------------------|--------------------|--------------------|----------8---------|
|--5-----------------|--10-------8--------|---8----------------|--------------------|
|--5-----------------|--10-------9--------|---7----------------|--9----9------------|
|--5-----------------|--10------10--------|---9----------------|--------------------|
|--------------------|---8------10--------|--10----------------|--------------------|
|--------------------|-----------8--------|--------------------|--------------------|
|                                                                                   |
|-----------0--------|--------------------|--------------------|--------------------|
|--1-----------1-----|-----------1--------|--0--------3--------|--1-----1-----1-----|
|-----0-----------0--|--2-----------0-----|-----0--------0-----|-----------0-----0--|
|--------2-----------|-----3--3--------2--|--------0--------0--|--------------------|
|--3-----------------|--------------------|--------------------|--------------------|
|--------------------|--------------------|--------------------|--------------------|
|                                                                                   |
|--------------------|--------------------|--------------------|--------------------|
|-----------1--------|--------1--------1--|-----0--------0-----|-----1--------1-----|
|-----0--------0-----|-----2--------0-----|--------0--------0--|--------0--------0--|
|--------2--------2--|--------------------|--------------------|--------------------|
|--------------------|--------------------|--------------------|--------------------|
|--------------------|--------------------|--------------------|--------------------|


    C                   F                    C                    G
|---8----------------|--------------------|--------------------|----------/10-------|
|---8----------------|--10----------------|--------------------|--------------------|
|---9----------------|--10----------------|---9----------------|---7----------------|
|--10----------------|--10----------------|--10----------------|---9----------------|
|--------------------|--------------------|--10----------------|--10----------------|
|--------------------|--------------------|--------------------|--------------------|
|                                                                                   |
|--3-----3--3--1--0--|--------------------|-----------0--------|--------------------|
|--1-----------------|--1--------1--------|--1-----------1-----|--0-----0--0--1--3--|
|--------------------|--2-----2-----2-----|-----0-----------0--|-----0--------------|
|--------------------|--3--------------3--|--------2-----------|--------------------|
|--------------------|--------------------|--3-----------------|--------------------|
|--------------------|--------------------|--------------------|--------------------|
|                                                                                   |
|--------------------|--------------------|--------------------|--------------------|
|--------1-----1-----|--------1-----1-----|--------1-----1-----|--------0--0-----0--|
|-----0-----------0--|-----2-----------0--|-----0-----------0--|-----0--------2-----|
|--------------------|--------------------|--------------------|--------------------|
|--------------------|--------------------|--------------------|--------------------|
|--------------------|--------------------|--------------------|--------------------|


Chorus 3
""""""""
  C                     F                    G                    C
|--------------------|--------------------|-----------3--------|--------------------|
|--5--------5--------|--------6--6-----6--|--------------3-----|-----------8--6--8--|
|-----5--------5-----|-----5--------5-----|-----4-----------4--|-----5-----9--7--9--|
|--------5--------5--|--7-----------------|--5-----5-----------|--------------------|
|--------------------|--------------------|--------------------|--------------------|
|--------------------|--------------------|--------------------|--------------------|
|                                                                                   |
|--0-----3--3--------|-----------0--------|--------------------|-----0--------------|
|--------------------|--1--------1--------|--------------0-----|--1-----1-----------|
|-----0-----0-----0--|-----2--------2-----|--------0--------0--|-----------0-----0--|
|--------------------|--3-----3--------3--|--------------------|--------------2-----|
|--------------------|--------------------|--------------------|--------------------|
|--------------------|--------------------|--3-----------------|--------------------|
|                                                                                   |
|--------------------|--------------------|--------------------|--------------------|
|-----1--------1-----|--------1-----1-----|-----0-----------0--|--------1--------1--|
|--------0--------0--|-----2-----------2--|--------0-----0-----|-----0--------0-----|
|--------------------|--------------------|--------------------|--------------------|
|--------------------|--------------------|--------------------|--------------------|
|--------------------|--------------------|--------------------|--------------------|


   C                    F                     C                    G
|--------------------|---------------------|--------------------|-----------3--------|
|--5-----5--5-----5--|--6-----6--6------6--|--5-----5--5----5---|--------3-----3-----|
|--5-----5--5-----5--|--5-----5--5------5--|--5-----5--5----5---|-----4-----------4--|
|--------------------|---------------------|--------------------|--5-----------------|
|--------------------|---------------------|--------------------|--------------------|
|--------------------|---------------------|--------------------|--------------------|
|                                                                                    |
|--------3--3--1--0--|---------------------|--------------0-----|--------------------|
|-----------1--1--1--|----------------1----|--1--------3--1-----|--0--------0--3--0--|
|--------------------|--2-----2--0h2----2--|-----0--------------|-----0--------------|
|-----2--------------|-----3---------------|--------2-----------|--------0-----------|
|--3-----3-----------|---------------------|--------------------|--------------------|
|--------------------|---------------------|--------------------|--3-----------------|
|                                                                                    |
|--------------------|---------------------|--------------------|--------------------|
|--------1--------1--|--------1---------1--|--------1--------1--|--------0--------0--|
|-----0--------0-----|-----2---------2-----|-----0--------0-----|-----0--------0-----|
|--------------------|---------------------|--------------------|--------------------|
|--------------------|---------------------|--------------------|--------------------|
|--------------------|---------------------|--------------------|--------------------|


Interlude 3
"""""""""""
   C                    F                     C                          G
|--------------------|-------5----------5--|--3-----------------------|--------------------|
|-----8--6--5--6--5--|----------6-------6--|--5----------/8\6------5--|--3--------3--5--6--|
|-----9--7--5--7--5--|---------------------|-------------/9\7------5--|--4--------4--5--7--|
|--------------------|--7------------------|--------------------------|--------------------|
|--------------------|---------------------|--------------------------|--------------------|
|--------------------|---------------------|--------------------------|--------------------|
|                                                                                          |
|--------0--0--------|---------------------|--------------------------|--------------------|
|--1-----------3--1--|-----1----------1----|--------------------------|--------------------|
|-----0-----0--------|--2-----2--0h2----2--|-------0----------0h2--0--|--------------------|
|--2-----------------|---------------------|--0h2--------0h2----------|--0-----------0-----|
|--------------------|---------------------|----------3---------------|-----2-----2--------|
|--------------------|---------------------|--------------------------|--3-----3--------3--|
|                                                                                          |
|--------------------|---------------------|--------------------------|--------------------|
|--------1--------1--|-----1------------1--|----------1------------1--|-----0--1--3-----0--|
|-----0--------0-----|--------2------2-----|-------0----------0-------|--------------0-----|
|--------------------|---------------------|--------------------------|--------------------|
|--------------------|---------------------|--------------------------|--------------------|
|--------------------|---------------------|--------------------------|--------------------|


Chorus 4
""""""""
   C                    F                      G                    C
|--------------------|----------------------|--------------------|-----8--10--10/12\10--8--|
|--8-----------------|--6-------------------|--3-----------------|-------------------------|
|--9-----------------|--5----------5--------|--4-----------------|-----9--10--10/12\10--9--|
|--------------------|----------7-----------|--5-----------------|-------------------------|
|--------------------|----------------------|--------------------|-------------------------|
|--------------------|----------------------|--------------------|-------------------------|
|                                                                                          |
|-----------0--------|----------------------|--------------------|-------------0-----------|
|--1-----------3--1--|----------1-----------|--------------------|--1------1---1----1------|
|-----0--------------|--2--0h2-----2-----2--|--------------------|--0------0------------0--|
|--------2-----------|----------------------|-----0-----2--0--2--|-------------------------|
|--3-----------------|----------------------|--2-----------------|--3----------------------|
|--------------------|----------------------|--------3-----------|-------------------------|
|                                                                                          |
|--------------------|----------1-----1-----|-----------3--------|-------------------------|
|--------1--------1--|----------1--------1--|--------0-----0-----|---------1-------1-------|
|-----0--------0-----|------2---------2-----|-----0-----------0--|------0---------------0--|
|--------------------|----------------------|--------------------|-------------------------|
|--------------------|----------------------|--------------------|-------------------------|
|--------------------|----------------------|--------------------|-------------------------|


   C                    F                        C                     G
|--8-----------------|------------------------|---------------------|--------------------|
|--------------------|------------------------|-----------8---------|--------------------|
|--9-----------------|---------10-----10------|--------------9------|--------------------|
|--------------------|-----10-------------10--|-----------------10--|---9----------------|
|--------------------|--8---------------------|--10-----------------|--10----------------|
|--------------------|------------------------|---------------------|--------------------|
|                                                                                        |
|--3--------3--1--0--|--1---------------------|-----------0---------|--------------------|
|-----1--------------|--1------1-------1------|--1-----3--------1---|--0-----0--0--1--3--|
|--------0--------0--|-----2------0h2-----2---|-----0---------------|-----0--------------|
|--------------------|--3---------------------|---------------------|--------------------|
|--3-----------------|------------------------|--3------------------|--------------------|
|--------------------|------------------------|---------------------|--3-----------------|
|                                                                                        |
|--------------------|------------------------|---------------------|-----------3--------|
|--------1-----1-----|--------1--------1------|--------1------1-----|--------0-----0-----|
|-----0-----------0--|-----2---------------2--|-----0------------0--|-----0-----------0--|
|--------------------|------------------------|---------------------|--------------------|
|--------------------|------------------------|---------------------|--------------------|
|--------------------|------------------------|---------------------|--------------------|


Outro
"""""
   C                    F                      C                    G
|--------------------|----------------------|--------------------|--------------------|
|-----5--8--6--------|--------6----6--------|--5-------\3--1-----|--------------------|
|-----5--7--5--------|--------5----5--------|-----------------0--|--4--------4--5--7--|
|-----------------5--|--7-------------------|--5-------\3--2-----|--5-----------------|
|--------------------|----------------------|--------------------|--5--------5--7--8--|
|--------------------|----------------------|--------------------|--------------------|
|                                                                                     |
|--0--------0--------|----------------------|-----------0--------|--------------------|
|-----1--------3--1--|-------------1--------|--1--------------1--|--0--------------0--|
|--------0-----------|--2-----0h2-----2-----|-----0--------0-----|--0-----0--0--2-----|
|--------------------|-----3-------------3--|--------2-----------|-----0--------------|
|--3-----------------|----------------------|--3-----------------|--------------------|
|--------------------|----------------------|--------------------|--3-----------------|
|                                                                                     |
|-----3--------0--1--|-----3----------0--1--|-----3--------0--1--|-----3--------------|
|--------1--------1--|--------1----------1--|--------1--------1--|--------3-----1--3--|
|-----0--------0-----|-----2----------2-----|-----0--------0-----|-----0--------0-----|
|--------------------|----------------------|--------------------|--------------------|
|--------------------|----------------------|--------------------|--------------------|
|--------------------|----------------------|--------------------|--------------------|


   C                    F                      C                     C
|-----------8--------|----------------------|--12-----\10--8--10--|--8------------||
|-----------8--------|--10---/13--13--------|---------------------|---------------||
|---9------------9---|--10---/12--12--------|--12-----\10--9--10--|--9------------||
|--------------------|----------------------|---------------------|---------------||
|--10----------------|----------------------|---------------------|---------------||
|--------------------|----------------------|---------------------|---------------||
|                                                                                 ||
|-----0-----0--------|----------------------|-----------------0---|---------------||
|--1--------1--3--1--|----------------1-----|--3-----1--1--3--3---|--1------------||
|--------0-----------|--2-----2--0h2-----2--|-----0---------------|--0------------||
|--------------------|-----3----------------|---------------------|--2------------||
|--3-----------------|----------------------|---------------------|---------------||
|--------------------|----------------------|---------------------|---------------||
|                                                                                 ||
|-----3--------0--1--|-----3----------0--1--|-----3---------0--1--|--0------------||
|--------1--------1--|--------1----------1--|--------1---------1--|--1------------||
|-----0--------0-----|-----2----------2-----|-----0---------0-----|---------------||
|--------------------|----------------------|---------------------|---------------||
|--------------------|----------------------|---------------------|---------------||
|--------------------|----------------------|---------------------|---------------||




Tablature Legend
----------------
h - hammer on
p - pull off
/ - slide up
\ - slide down


            
            
Suggest correction
Creating personal tab
Creating personal tab
You can edit any tab online and save it as your Personal.

You can edit, replace or remove any tab part or add personal notes – all changes will be seen only by you.

Personal tabs can be accessed anytime from any device, even offline.
Learn more »
Give kudos to tab author, rate the tab!
1 2 3 4 5
comments
print report bad tab
guest
You may want to rate the tab now too:
select rating
Wanna post a correction for this tab? Suggest correction