Oops, an error
Loading. Please wait.

Rowboat Bass Tab

687 views 1 this week
no commentswrite comment
1 2 3 4 5
3 more votes to show rating
add to favorites
launch autoscroll
font size
0
reset
guitar tuner
Autoscroll
slow
fast
+/-
esc
set tempo
stop
Help us to improve Ultimate-Guitar.com Take our survey!
×
Author
Difficulty
novice
Johnny Cash - Rowboat
Album -Unchained
Tuning Standard G,D,A,E



Verse 1
G|-------------------------------------------------------------------|
D|-----------0----------------0--------------------------------------|
A|--0-------------0---------------0---------5---0-----------5--------|
E|----0--3-----------0---3-----------0--3----------0----3------------|

Chorus
G|-------------------------------------------------------------------|
D|-------------------------------------------------------------------|
A|-3------5----3------5----3------5--------------5-------------------|
E|----3-----------3-----------3-------1--2--3------------------------|

Verse 2

G|-------------------------------------------------------------------|
D|-----------0----------------0--------------------------------------|
A|--0-------------0---------------0---------5---0-----------5--------|
E|----0--3-----------0---3-----------0--3----------0----3------------|

Chorus 2 
G|-------------------------------------------------------------------|
D|-------------------------------------------------------------------|
A|-3------5----3------5----3------5--------------5-------------------|
E|----3-----------3-----------3-------1--2--3------------------------|

Solo

G|-------------------------------------------------------------------|
D|-------------------------------------------------------------------|
A|--0--------5---0----------5---3------5--3------5---1--2-3--5-------|
E|-----0-3-----------0--3----------3----------3----------------------|

Verse 3

G|-------------------------------------------------------------------|
D|-----------0----------------0--------------------------------------|
A|--0-------------0---------------0---------5---0-----------5--------|
E|----0--3-----------0---3-----------0--3----------0----3------------|

Suggest correction
Give kudos to tab author, rate the tab!
1 2 3 4 5
comments
print report bad tab
guest
You may want to rate the tab now too:
select rating
Wanna post a correction for this tab? Suggest correction