Oops, an error
Loading. Please wait.

So Doggone Lonesome Tab

version 2
version 2

Intro

31 views 1 this week
no commentswrite comment
1 2 3 4 5
3 more votes to show rating
add to favorites
launch autoscroll
font size
0
reset
how to read this tab
guitar tuner
Autoscroll
slow
fast
+/-
esc
set tempo
stop
Help us to improve Ultimate-Guitar.com Take our survey!
×
Author
Capo
1st fret
Intro and Solo - So Doggone Lonesome by Johnny Cash (With His Hot And Blue Guitar, 1957) 
Best played with Capo on the 1st fret (as Luther Perkins did) but also works without. 

[Intro]
                                                                      * (down-up strum) 
e|--------------------------------------------------------------------|x-------------------|
B|--------------------------------------------------------------------|x-------------------|
G|--------------------------------------------------------------------|1-------------------|
D|--------------------------------------------------------------------|2-------------------|
A|------------------------------------------------------------------2-|2-------------------|
E|-0-0-0-0----3-3-3-3--2----3-3-3-3--2----3-3-3-3--2--3b-0-4-2-0------|x-------0-----------|


[Solo]

e|--------------------------------------------------------------------|
B|--------------------------------------------------------------------|
G|--------------------------------------------------------------------|
D|---------------2-2-2-2---2-2----------------------------------------|
A|-------0-0-0-0--------------2-0-------------------------------------|
E|-0-2-4---------------------------4-2-0------------------------------|


Repeat solo 3 times and then play the Intro part.

Classic Cash, Perkins & Grant



************************************

| x  Dead note
| b  Bend

************************************
Suggest correction
Give kudos to tab author, rate the tab!
1 2 3 4 5
comments
print report bad tab
guest
You may want to rate the tab now too:
select rating
Wanna post a correction for this tab? Suggest correction