Oops, an error
Loading. Please wait.

Spiritual Bass Tab

916 views 1 this week
no commentswrite comment
1 2 3 4 5
please rate
add to favorites
launch autoscroll
font size
0
reset
guitar tuner
Autoscroll
slow
fast
+/-
esc
set tempo
stop
Help us to improve Ultimate-Guitar.com Take our survey!
×
Author
Difficulty
novice
Johnny Cash - Spiritual
 off Unchained album
Tuning Standard G,D,A,E




G|--------------------------------------|
D|--------------------------------------|
A|--0-----------------------------------|
E|----0-----------2-------------10------|
  

G|---------------------------------------------------|
D|---------------------------------------------------|
A|--0------------------------------------------------|
E|-----------------0-----------2-----------10--------|
  

G|----------------------------------------------------|
D|----------------------------------------------------|
A|----0-----------------------------------------------|
E|-----------------0--------2----------10-------------|
  

G|----------------------------------------------|
D|----------------------------------------------|
A|----------------------------------------------|
E|--5-------0-----------2-------------0-----10--|
  

The rest of the song is the same over and over
G|----------------------------------------------|
D|----------------------------------------------|
A|----------------------------------------------|
E|--5-------0-----------2-------------0-----10--|

Suggest correction
Give kudos to tab author, rate the tab!
1 2 3 4 5
comments
print report bad tab
guest
You may want to rate the tab now too:
select rating
Wanna post a correction for this tab? Suggest correction