Oops, an error
Loading. Please wait.

The Man Comes Around Tab

16,027 views 3 this week
1 commentread comment
1 2 3 4 5
accurate
x 6
add to favorites
launch autoscroll
font size
0
reset
how to read this tab
guitar tuner
Autoscroll
slow
fast
+/-
esc
set tempo
stop
Help us to improve Ultimate-Guitar.com Take our survey!
×
Song: The Man Comes Around
Band: Johnny Cash
Album: American IV: The Man Comes Around
Tuning: Standard
Tabbed by: J.Griff (artificial_inside@hotmail.com)
Comments: The first time I heard this song was from the Dawn of the Dead
remake. It added a very nice touch to the whole zombie apocalypse thing. 
I was watching the movie the other day and decided to tab the song out. 
The other versions weren't complete, so I'll do my best to make a complete
tab of this song. By the way, the song is called "The Man Comes Around" 
and not "When the Man Comes Around." 

If there's any mistakes, let me know. Please rate and comment.


"And I heard, as it were, the noise of thunder. One of the four beasts
saying, 'Come and see.' and I saw, and behold a white horse." 


Intro:

e|----------------------------------------------------------|
B|----------------------------------------------------------|
G|--5-x-x--x-x-x--5-x-x--x-x-x--5-x-x--x-x-x--5-x-x--x-x-x--|
D|--5-x-x--x-x-x--5-x-x--x-x-x--5-x-x--x-x-x--5-x-x--x-x-x--|
A|--3-x-x--x-x-x--3-x-x--x-x-x--3-x-x--x-x-x--3-x-x--x-x-x--|
E|--3-x-x--x-x-x--3-x-x--x-x-x--3-x-x--x-x-x--3-x-x--x-x-x--|

e|----------------------------------------------------------|
B|----------------------------------------------------------|
G|--5-x-x--x-x-x--5-x-x--x-x-x--5-x-x--x-x-x--5-x-x--x-x-x--|
D|--5-x-x--x-x-x--5-x-x--x-x-x--5-x-x--x-x-x--5-x-x--x-x-x--|
A|--3-x-x--x-x-x--3-x-x--x-x-x--3-x-x--x-x-x--3-x-x--x-x-x--|
E|--3-x-x--x-x-x--3-x-x--x-x-x--3-x-x--x-x-x--3-x-x--x-x-x--|


Verse:

e|----------------------------------------------------------|
B|----------------------------------------------------------|
G|--5-x-x--x-x-x--5-x-x--x-x-x--5-x-x--x-x-x--5-x-x--x-x-x--|
D|--5-x-x--x-x-x--5-x-x--x-x-x--5-x-x--x-x-x--5-x-x--x-x-x--|
A|--3-x-x--x-x-x--3-x-x--x-x-x--3-x-x--x-x-x--3-x-x--x-x-x--|
E|--3-x-x--x-x-x--3-x-x--x-x-x--3-x-x--x-x-x--3-x-x--x-x-x--|

e|----------------------------------------------------------|
B|----------------------------------------------------------|
G|--5-x-x--x-x-x--5-x-x--x-x-x--5-x-x--x-x-x--5-x-x--x-x-x--|
D|--5-x-x--x-x-x--5-x-x--x-x-x--5-x-x--x-x-x--5-x-x--x-x-x--|
A|--3-x-x--x-x-x--3-x-x--x-x-x--3-x-x--x-x-x--3-x-x--x-x-x--|
E|--3-x-x--x-x-x--3-x-x--x-x-x--3-x-x--x-x-x--3-x-x--x-x-x--|

e|----------------------------------------------------------|
B|----------------------------------------------------------|
G|--5-x-x--x-x-x--5-x-x--x-x-x--5-x-x--x-x-x--5-x-x--x-x-x--|
D|--5-x-x--x-x-x--5-x-x--x-x-x--5-x-x--x-x-x--5-x-x--x-x-x--|
A|--3-x-x--x-x-x--3-x-x--x-x-x--3-x-x--x-x-x--3-x-x--x-x-x--|
E|--3-x-x--x-x-x--3-x-x--x-x-x--3-x-x--x-x-x--3-x-x--x-x-x--|

e|------------------------------------------------------|
B|----------------------------1-1--1-1-1--1-1--1-1-1----|
G|--5-x-x--x-x-x--5-x-x-------2-2--2-2-2--2-2--2-2-2----|
D|--5-x-x--x-x-x--5-x-x-------2-2--2-2-2--2-2--2-2-2----|
A|--3-x-x--x-x-x--3-x-x--3-2--0-0--0-0-0--0-0--0-0-0----|
E|--3-x-x--x-x-x--3-x-x---------------------------------|

e|--------------3-3--3-3-3--|
B|--------------3-3--3-3-3--|
G|--4-4--4-4-4--0-0--0-0-0--|
D|--3-3--3-3-3--0-0--0-0-0--|
A|--3-3--3-3-3--2-2--2-2-2--|
E|--1-1--1-1-1--3-3--3-3-3--|

e|----------------------------------------------------------|
B|----------------------------------------------------------|
G|--5-x-x--x-x-x--5-x-x--x-x-x--5-x-x--x-x-x--5-x-x--x-x-x--|
D|--5-x-x--x-x-x--5-x-x--x-x-x--5-x-x--x-x-x--5-x-x--x-x-x--|
A|--3-x-x--x-x-x--3-x-x--x-x-x--3-x-x--x-x-x--3-x-x--x-x-x--|
E|--3-x-x--x-x-x--3-x-x--x-x-x--3-x-x--x-x-x--3-x-x--x-x-x--|

Verse:

e|----------------------------------------------------------|
B|----------------------------------------------------------|
G|--5-x-x--x-x-x--5-x-x--x-x-x--5-x-x--x-x-x--5-x-x--x-x-x--|
D|--5-x-x--x-x-x--5-x-x--x-x-x--5-x-x--x-x-x--5-x-x--x-x-x--|
A|--3-x-x--x-x-x--3-x-x--x-x-x--3-x-x--x-x-x--3-x-x--x-x-x--|
E|--3-x-x--x-x-x--3-x-x--x-x-x--3-x-x--x-x-x--3-x-x--x-x-x--|

e|----------------------------------------------------------|
B|----------------------------------------------------------|
G|--5-x-x--x-x-x--5-x-x--x-x-x--5-x-x--x-x-x--5-x-x--x-x-x--|
D|--5-x-x--x-x-x--5-x-x--x-x-x--5-x-x--x-x-x--5-x-x--x-x-x--|
A|--3-x-x--x-x-x--3-x-x--x-x-x--3-x-x--x-x-x--3-x-x--x-x-x--|
E|--3-x-x--x-x-x--3-x-x--x-x-x--3-x-x--x-x-x--3-x-x--x-x-x--|

e|----------------------------------------------------------|
B|----------------------------------------------------------|
G|--5-x-x--x-x-x--5-x-x--x-x-x--5-x-x--x-x-x--5-x-x--x-x-x--|
D|--5-x-x--x-x-x--5-x-x--x-x-x--5-x-x--x-x-x--5-x-x--x-x-x--|
A|--3-x-x--x-x-x--3-x-x--x-x-x--3-x-x--x-x-x--3-x-x--x-x-x--|
E|--3-x-x--x-x-x--3-x-x--x-x-x--3-x-x--x-x-x--3-x-x--x-x-x--|

e|------------------------------------------------------|
B|----------------------------1-1--1-1-1--1-1--1-1-1----|
G|--5-x-x--x-x-x--5-x-x-------2-2--2-2-2--2-2--2-2-2----|
D|--5-x-x--x-x-x--5-x-x-------2-2--2-2-2--2-2--2-2-2----|
A|--3-x-x--x-x-x--3-x-x--3-2--0-0--0-0-0--0-0--0-0-0----|
E|--3-x-x--x-x-x--3-x-x---------------------------------|

e|--------------3-3--3-3-3--|
B|--------------3-3--3-3-3--|
G|--4-4--4-4-4--0-0--0-0-0--|
D|--3-3--3-3-3--0-0--0-0-0--|
A|--3-3--3-3-3--2-2--2-2-2--|
E|--1-1--1-1-1--3-3--3-3-3--|

Chorus:

e|---------------------------------0--0-3--3-3-3--0--0-3--3-3-3--|
B|--1--1-1--1-1-1---1--1-1--1-1-1--1--1-1--1-1-1--1--1-1--1-1-1--|
G|--0--0-0--0-0-0---0--0-0--0-0-0--0--0-0--0-0-0--0--0-0--0-0-0--|
D|--2--2-2--2-2-2---2--2-2--2-2-2--2--2-2--2-2-2--2--2-2--2-2-2--|
A|--3--3-3--3-3-3---3--3-3--3-3-3--3--3-3--3-3-3--3--3-3--3-3-3--|
E|--3--3-3--3-3-3---3--3-3--3-3-3--------------------------------|

e|---------------------------------0--0-3--3-3-3--0--0-3--3-3-3--|
B|--1--1-1--1-1-1---1--1-1--1-1-1--1--1-1--1-1-1--1--1-1--1-1-1--|
G|--0--0-0--0-0-0---0--0-0--0-0-0--0--0-0--0-0-0--0--0-0--0-0-0--|
D|--2--2-2--2-2-2---2--2-2--2-2-2--2--2-2--2-2-2--2--2-2--2-2-2--|
A|--3--3-3--3-3-3---3--3-3--3-3-3--3--3-3--3-3-3--3--3-3--3-3-3--|
E|--3--3-3--3-3-3---3--3-3--3-3-3--------------------------------|

e|---------------------------------------|
B|--1--1-1--1-1-1---1--1-1--1-1-1-----1--|
G|--0--0-0--0-0-0---0--0-0--0-0-0--4--2--|
D|--2--2-2--2-2-2---2--2-2--2-2-2--3--2--|
A|--3--3-3--3-3-3---3--3-3--3-3-3--3--0--|
E|--3--3-3--3-3-3---3--3-3--3-3-3--1-----|

e|--3--3-3--3-3-3---3--3-3--3-3-3---3--3-3--3-3-3---3--3-3--3-3-3--|
B|--3--3-3--3-3-3---3--3-3--3-3-3---3--3-3--3-3-3---3--3-3--3-3-3--|
G|--0--0-0--0-0-0---0--0-0--0-0-0---0--0-0--0-0-0---0--0-0--0-0-0--|
D|--0--0-0--0-0-0---0--0-0--0-0-0---0--0-0--0-0-0---0--0-0--0-0-0--|
A|--2--2-2--2-2-2---2--2-2--2-2-2---2--2-2--2-2-2---2--2-2--2-2-2--|
E|--3--3-3--3-3-3---3--3-3--3-3-3---3--3-3--3-3-3---3--3-3--3-3-3--|

e|--3--3-3--3-3-3---3--3-3--3-3-3---3--3-3--3-3-3---3--3-3--3-3-3--|
B|--3--3-3--3-3-3---3--3-3--3-3-3---3--3-3--3-3-3---3--3-3--3-3-3--|
G|--0--0-0--0-0-0---0--0-0--0-0-0---0--0-0--0-0-0---0--0-0--0-0-0--|
D|--0--0-0--0-0-0---0--0-0--0-0-0---0--0-0--0-0-0---0--0-0--0-0-0--|
A|--2--2-2--2-2-2---2--2-2--2-2-2---2--2-2--2-2-2---2--2-2--2-2-2--|
E|--3--3-3--3-3-3---3--3-3--3-3-3---3--3-3--3-3-3---3--3-3--3-3-3--|

e|--3--3-3--3-3-3---3--3-3--3-3-3---3--3-3--3-3-3---3--3-3--3-3-3--|
B|--3--3-3--3-3-3---3--3-3--3-3-3---3--3-3--3-3-3---3--3-3--3-3-3--|
G|--0--0-0--0-0-0---0--0-0--0-0-0---0--0-0--0-0-0---0--0-0--0-0-0--|
D|--0--0-0--0-0-0---0--0-0--0-0-0---0--0-0--0-0-0---0--0-0--0-0-0--|
A|--2--2-2--2-2-2---2--2-2--2-2-2---2--2-2--2-2-2---2--2-2--2-2-2--|
E|--3--3-3--3-3-3---3--3-3--3-3-3---3--3-3--3-3-3---3--3-3--3-3-3--|

e|-----------------------------------|
B|--1--1-1--1-1-1---1--1-1--1-1-1----|
G|--0--0-0--0-0-0---0--0-0--0-0-0----|
D|--2--2-2--2-2-2---2--2-2--2-2-2----|
A|--3--3-3--3-3-3---3--3-3--3-3-3----|
E|--3--3-3--3-3-3---3--3-3--3-3-3----|

e|---------------------------------------------------------------|
B|---------------------------------1--1-1--1-1-1--1--1-1--1-1-1--|
G|--4--4-4--4-4-4--4--4-4--4-4-4---0--0-0--0-0-0--0--0-0--0-0-0--|
D|--3--3-3--3-3-3--3--3-3--3-3-3---2--2-2--2-2-2--2--2-2--2-2-2--|
A|--3--3-3--3-3-3--3--3-3--3-3-3---3--3-3--3-3-3--3--3-3--3-3-3--|
E|--1--1-1--1-1-1--1--1-1--1-1-1---3--3-3--3-3-3--3--3-3--3-3-3--|

e|----------------------------------------------------------|
B|----------------------------------------------------------|
G|--5-x-x--x-x-x--5-x-x--x-x-x--5-x-x--x-x-x--5-x-x--x-x-x--|
D|--5-x-x--x-x-x--5-x-x--x-x-x--5-x-x--x-x-x--5-x-x--x-x-x--|
A|--3-x-x--x-x-x--3-x-x--x-x-x--3-x-x--x-x-x--3-x-x--x-x-x--|
E|--3-x-x--x-x-x--3-x-x--x-x-x--3-x-x--x-x-x--3-x-x--x-x-x--|

e|---------------------------------------------------------------|
B|---------------------------------1--1-1--1-1-1--1--1-1--1-1-1--|
G|--4--4-4--4-4-4--4--4-4--4-4-4---0--0-0--0-0-0--0--0-0--0-0-0--|
D|--3--3-3--3-3-3--3--3-3--3-3-3---2--2-2--2-2-2--2--2-2--2-2-2--|
A|--3--3-3--3-3-3--3--3-3--3-3-3---3--3-3--3-3-3--3--3-3--3-3-3--|
E|--1--1-1--1-1-1--1--1-1--1-1-1---3--3-3--3-3-3--3--3-3--3-3-3--|

e|----------------------------------------------------------|
B|----------------------------------------------------------|
G|--5-x-x--x-x-x--5-x-x--x-x-x--5-x-x--x-x-x--5-x-x--x-x-x--|
D|--5-x-x--x-x-x--5-x-x--x-x-x--5-x-x--x-x-x--5-x-x--x-x-x--|
A|--3-x-x--x-x-x--3-x-x--x-x-x--3-x-x--x-x-x--3-x-x--x-x-x--|
E|--3-x-x--x-x-x--3-x-x--x-x-x--3-x-x--x-x-x--3-x-x--x-x-x--|



Verse:

e|----------------------------------------------------------|
B|----------------------------------------------------------|
G|--5-x-x--x-x-x--5-x-x--x-x-x--5-x-x--x-x-x--5-x-x--x-x-x--|
D|--5-x-x--x-x-x--5-x-x--x-x-x--5-x-x--x-x-x--5-x-x--x-x-x--|
A|--3-x-x--x-x-x--3-x-x--x-x-x--3-x-x--x-x-x--3-x-x--x-x-x--|
E|--3-x-x--x-x-x--3-x-x--x-x-x--3-x-x--x-x-x--3-x-x--x-x-x--|

e|----------------------------------------------------------|
B|----------------------------------------------------------|
G|--5-x-x--x-x-x--5-x-x--x-x-x--5-x-x--x-x-x--5-x-x--x-x-x--|
D|--5-x-x--x-x-x--5-x-x--x-x-x--5-x-x--x-x-x--5-x-x--x-x-x--|
A|--3-x-x--x-x-x--3-x-x--x-x-x--3-x-x--x-x-x--3-x-x--x-x-x--|
E|--3-x-x--x-x-x--3-x-x--x-x-x--3-x-x--x-x-x--3-x-x--x-x-x--|

e|----------------------------------------------------------|
B|----------------------------------------------------------|
G|--5-x-x--x-x-x--5-x-x--x-x-x--5-x-x--x-x-x--5-x-x--x-x-x--|
D|--5-x-x--x-x-x--5-x-x--x-x-x--5-x-x--x-x-x--5-x-x--x-x-x--|
A|--3-x-x--x-x-x--3-x-x--x-x-x--3-x-x--x-x-x--3-x-x--x-x-x--|
E|--3-x-x--x-x-x--3-x-x--x-x-x--3-x-x--x-x-x--3-x-x--x-x-x--|

e|----------------------------------------------------------|
B|----------------------------------------------------------|
G|--5-x-x--x-x-x--5-x-x--x-x-x--5-x-x--x-x-x--5-x-x--x-x-x--|
D|--5-x-x--x-x-x--5-x-x--x-x-x--5-x-x--x-x-x--5-x-x--x-x-x--|
A|--3-x-x--x-x-x--3-x-x--x-x-x--3-x-x--x-x-x--3-x-x--x-x-x--|
E|--3-x-x--x-x-x--3-x-x--x-x-x--3-x-x--x-x-x--3-x-x--x-x-x--|

e|------------------------------------------------------|
B|----------------------------1-1--1-1-1--1-1--1-1-1----|
G|--5-x-x--x-x-x--5-x-x-------2-2--2-2-2--2-2--2-2-2----|
D|--5-x-x--x-x-x--5-x-x-------2-2--2-2-2--2-2--2-2-2----|
A|--3-x-x--x-x-x--3-x-x--3-2--0-0--0-0-0--0-0--0-0-0----|
E|--3-x-x--x-x-x--3-x-x---------------------------------|

e|--------------3-3--3-3-3--|
B|--------------3-3--3-3-3--|
G|--4-4--4-4-4--0-0--0-0-0--|
D|--3-3--3-3-3--0-0--0-0-0--|
A|--3-3--3-3-3--2-2--2-2-2--|
E|--1-1--1-1-1--3-3--3-3-3--|


Verse:

e|----------------------------------------------------------|
B|----------------------------------------------------------|
G|--5-x-x--x-x-x--5-x-x--x-x-x--5-x-x--x-x-x--5-x-x--x-x-x--|
D|--5-x-x--x-x-x--5-x-x--x-x-x--5-x-x--x-x-x--5-x-x--x-x-x--|
A|--3-x-x--x-x-x--3-x-x--x-x-x--3-x-x--x-x-x--3-x-x--x-x-x--|
E|--3-x-x--x-x-x--3-x-x--x-x-x--3-x-x--x-x-x--3-x-x--x-x-x--|

e|----------------------------------------------------------|
B|----------------------------------------------------------|
G|--5-x-x--x-x-x--5-x-x--x-x-x--5-x-x--x-x-x--5-x-x--x-x-x--|
D|--5-x-x--x-x-x--5-x-x--x-x-x--5-x-x--x-x-x--5-x-x--x-x-x--|
A|--3-x-x--x-x-x--3-x-x--x-x-x--3-x-x--x-x-x--3-x-x--x-x-x--|
E|--3-x-x--x-x-x--3-x-x--x-x-x--3-x-x--x-x-x--3-x-x--x-x-x--|

e|----------------------------------------------------------|
B|----------------------------------------------------------|
G|--5-x-x--x-x-x--5-x-x--x-x-x--5-x-x--x-x-x--5-x-x--x-x-x--|
D|--5-x-x--x-x-x--5-x-x--x-x-x--5-x-x--x-x-x--5-x-x--x-x-x--|
A|--3-x-x--x-x-x--3-x-x--x-x-x--3-x-x--x-x-x--3-x-x--x-x-x--|
E|--3-x-x--x-x-x--3-x-x--x-x-x--3-x-x--x-x-x--3-x-x--x-x-x--|

e|----------------------------------------------------------|
B|----------------------------------------------------------|
G|--5-x-x--x-x-x--5-x-x--x-x-x--5-x-x--x-x-x--5-x-x--x-x-x--|
D|--5-x-x--x-x-x--5-x-x--x-x-x--5-x-x--x-x-x--5-x-x--x-x-x--|
A|--3-x-x--x-x-x--3-x-x--x-x-x--3-x-x--x-x-x--3-x-x--x-x-x--|
E|--3-x-x--x-x-x--3-x-x--x-x-x--3-x-x--x-x-x--3-x-x--x-x-x--|


Chorus:

e|---------------------------------0--0-3--3-3-3--0--0-3--3-3-3--|
B|--1--1-1--1-1-1---1--1-1--1-1-1--1--1-1--1-1-1--1--1-1--1-1-1--|
G|--0--0-0--0-0-0---0--0-0--0-0-0--0--0-0--0-0-0--0--0-0--0-0-0--|
D|--2--2-2--2-2-2---2--2-2--2-2-2--2--2-2--2-2-2--2--2-2--2-2-2--|
A|--3--3-3--3-3-3---3--3-3--3-3-3--3--3-3--3-3-3--3--3-3--3-3-3--|
E|--3--3-3--3-3-3---3--3-3--3-3-3--------------------------------|

e|---------------------------------0--0-3--3-3-3--0--0-3--3-3-3--|
B|--1--1-1--1-1-1---1--1-1--1-1-1--1--1-1--1-1-1--1--1-1--1-1-1--|
G|--0--0-0--0-0-0---0--0-0--0-0-0--0--0-0--0-0-0--0--0-0--0-0-0--|
D|--2--2-2--2-2-2---2--2-2--2-2-2--2--2-2--2-2-2--2--2-2--2-2-2--|
A|--3--3-3--3-3-3---3--3-3--3-3-3--3--3-3--3-3-3--3--3-3--3-3-3--|
E|--3--3-3--3-3-3---3--3-3--3-3-3--------------------------------|

e|-------------------------------------------------|
B|--1--1-1--1-1-1---1--1-1--1-1-1----------1--1-1--|
G|--0--0-0--0-0-0---0--0-0--0-0-0--4--4-4--0--0-0--|
D|--2--2-2--2-2-2---2--2-2--2-2-2--3--3-3--2--2-2--|
A|--3--3-3--3-3-3---3--3-3--3-3-3--3--3-3--3--3-3--|
E|--3--3-3--3-3-3---3--3-3--3-3-3--1--1-1----------|

e|--3--3-3--3-3-3---3--3-3--3-3-3---3--3-3--3-3-3---3--3-3--3-3-3--|
B|--3--3-3--3-3-3---3--3-3--3-3-3---3--3-3--3-3-3---3--3-3--3-3-3--|
G|--0--0-0--0-0-0---0--0-0--0-0-0---0--0-0--0-0-0---0--0-0--0-0-0--|
D|--0--0-0--0-0-0---0--0-0--0-0-0---0--0-0--0-0-0---0--0-0--0-0-0--|
A|--2--2-2--2-2-2---2--2-2--2-2-2---2--2-2--2-2-2---2--2-2--2-2-2--|
E|--3--3-3--3-3-3---3--3-3--3-3-3---3--3-3--3-3-3---3--3-3--3-3-3--|

e|--3--3-3--3-3-3---3--3-3--3-3-3---3--3-3--3-3-3---3--3-3--3-3-3--|
B|--3--3-3--3-3-3---3--3-3--3-3-3---3--3-3--3-3-3---3--3-3--3-3-3--|
G|--0--0-0--0-0-0---0--0-0--0-0-0---0--0-0--0-0-0---0--0-0--0-0-0--|
D|--0--0-0--0-0-0---0--0-0--0-0-0---0--0-0--0-0-0---0--0-0--0-0-0--|
A|--2--2-2--2-2-2---2--2-2--2-2-2---2--2-2--2-2-2---2--2-2--2-2-2--|
E|--3--3-3--3-3-3---3--3-3--3-3-3---3--3-3--3-3-3---3--3-3--3-3-3--|

e|--3--3-3--3-3-3---3--3-3--3-3-3---3--3-3--3-3-3---3--3-3--3-3-3--|
B|--3--3-3--3-3-3---3--3-3--3-3-3---3--3-3--3-3-3---3--3-3--3-3-3--|
G|--0--0-0--0-0-0---0--0-0--0-0-0---0--0-0--0-0-0---0--0-0--0-0-0--|
D|--0--0-0--0-0-0---0--0-0--0-0-0---0--0-0--0-0-0---0--0-0--0-0-0--|
A|--2--2-2--2-2-2---2--2-2--2-2-2---2--2-2--2-2-2---2--2-2--2-2-2--|
E|--3--3-3--3-3-3---3--3-3--3-3-3---3--3-3--3-3-3---3--3-3--3-3-3--|

e|-----------------------------------|
B|--1--1-1--1-1-1---1--1-1--1-1-1----|
G|--0--0-0--0-0-0---0--0-0--0-0-0----|
D|--2--2-2--2-2-2---2--2-2--2-2-2----|
A|--3--3-3--3-3-3---3--3-3--3-3-3----|
E|--3--3-3--3-3-3---3--3-3--3-3-3----|

e|---------------------------------------------------------------|
B|---------------------------------1--1-1--1-1-1--1--1-1--1-1-1--|
G|--4--4-4--4-4-4--4--4-4--4-4-4---0--0-0--0-0-0--0--0-0--0-0-0--|
D|--3--3-3--3-3-3--3--3-3--3-3-3---2--2-2--2-2-2--2--2-2--2-2-2--|
A|--3--3-3--3-3-3--3--3-3--3-3-3---3--3-3--3-3-3--3--3-3--3-3-3--|
E|--1--1-1--1-1-1--1--1-1--1-1-1---3--3-3--3-3-3--3--3-3--3-3-3--|

e|----------------------------------------------------------|
B|----------------------------------------------------------|
G|--5-x-x--x-x-x--5-x-x--x-x-x--5-x-x--x-x-x--5-x-x--x-x-x--|
D|--5-x-x--x-x-x--5-x-x--x-x-x--5-x-x--x-x-x--5-x-x--x-x-x--|
A|--3-x-x--x-x-x--3-x-x--x-x-x--3-x-x--x-x-x--3-x-x--x-x-x--|
E|--3-x-x--x-x-x--3-x-x--x-x-x--3-x-x--x-x-x--3-x-x--x-x-x--|

e|---------------------------------------------------------------|
B|---------------------------------1--1-1--1-1-1--1--1-1--1-1-1--|
G|--4--4-4--4-4-4--4--4-4--4-4-4---0--0-0--0-0-0--0--0-0--0-0-0--|
D|--3--3-3--3-3-3--3--3-3--3-3-3---2--2-2--2-2-2--2--2-2--2-2-2--|
A|--3--3-3--3-3-3--3--3-3--3-3-3---3--3-3--3-3-3--3--3-3--3-3-3--|
E|--1--1-1--1-1-1--1--1-1--1-1-1---3--3-3--3-3-3--3--3-3--3-3-3--|

e|----------------------------------------------------------|
B|----------------------------------------------------------|
G|--5-x-x--x-x-x--5-x-x--x-x-x--5-x-x--x-x-x--5-x-x--x-x-x--|
D|--5-x-x--x-x-x--5-x-x--x-x-x--5-x-x--x-x-x--5-x-x--x-x-x--|
A|--3-x-x--x-x-x--3-x-x--x-x-x--3-x-x--x-x-x--3-x-x--x-x-x--|
E|--3-x-x--x-x-x--3-x-x--x-x-x--3-x-x--x-x-x--3-x-x--x-x-x--|

e|----------------------------------------------------------|
B|----------------------------------------------------------|
G|--5-x-x--x-x-x--5-x-x--x-x-x--5-x-x--x-x-x--5-x-x--x-x-x--|
D|--5-x-x--x-x-x--5-x-x--x-x-x--5-x-x--x-x-x--5-x-x--x-x-x--|
A|--3-x-x--x-x-x--3-x-x--x-x-x--3-x-x--x-x-x--3-x-x--x-x-x--|
E|--3-x-x--x-x-x--3-x-x--x-x-x--3-x-x--x-x-x--3-x-x--x-x-x--|





"And I heard a voice in the midst of the four beasts. And I looked, and
behold a pale horse, and his name that sat on him was Death, and hell
followed with him."

Suggest correction
comments
print report bad tab
1 comment total.
0 reply
inshilon 10 wrote on March 19 2015, 11:14 am, edited at 12:49 pm

The verse strum 1-3-3-4 sounds really weird. I think it's rather 1-3-3-2, just like a F! Great tab anyway, thank you! :)

guest
You may want to rate the tab now too:
select rating
Please do not post tabs as comments. Select "correction" instead!