Oops, an error
Loading. Please wait.

Unchained Bass Tab

818 views 3 this week
no commentswrite comment
1 2 3 4 5
please rate
add to favorites
launch autoscroll
font size
0
reset
guitar tuner
Tab Pro tools
  • play this tab
  • loop segment
  • change instrument
  • show fretboard
  • metronome
Autoscroll
slow
fast
+/-
esc
set tempo
stop
Contributor
Difficulty
novice
Johnny Cash - Unchained
Album - Unchained

Tuning: Standard G,D,A,E,
Listen to song 4 Timing

Verse 1

G|---------------------------------------------------------|
D|---------------------------------------------------------|
A|---------------------------------------------------------|
E|-9--3-5--5-----0----------5-----0-------------5----------|
           
G|-------------------------------------------------------------------|
D|-------------------------------------------------------------------|
A|-------------------------------------------------------------------|
E|-9--3-5---5-------0------------5---0------------5----5-9/1---------|
           

G|-------------------------------------------------------------------|
D|------------------------------------------2------4----------0------|
A|--------------------------5-----5/9/5------------------------------|
E|-0-------2---------------------------------------------------------|
  

Chorus

G|-------------------------------------------------------------------|
D|----------------------------0----2---------------------------------|
A|--0------------------------------------0-----0-----5---------------|
E|-------0-------2--2-2----------------------------------------------|
  

G|-------------------------------------------------------------------|
D|-------------------------------------------------------------------|
A|-0-----------------------------------------------------------------|
E|---------------10------------10-/-5-------------------------0------|
  

G|--------------------------------|
D|--------------------------------|
A|--------------------------------|
E|------------5----0--------------|
  




Verse 2

G|---------------------------------------------------------|
D|---------------------------------------------------------|
A|---------------------------------------------------------|
E|-9--3-5--5-----0----------5-----0-------------5----------|

G|-------------------------------------------------------------------|
D|-------------------------------------------------------------------|
A|-------------------------------------------------------------------|
E|-9--3-5---5-------0------------5---0------------5----5-9/1---------|

G|-------------------------------------------------------------------|
D|------------------------------------------2------4----------0------|
A|--------------------------5-----5/9/5------------------------------|
E|-0-------2---------------------------------------------------------|

Chorus

G|-------------------------------------------------------------------|
D|----------------------------0----2---------------------------------|
A|--0------------------------------------0-----0-----5---------------|
E|-------0-------2--2-2----------------------------------------------|
  

G|-------------------------------------------------------------------|
D|-------------------------------------------------------------------|
A|-0-----------------------------------------------------------------|
E|---------------10------------10-/-5-------------------------0------|
  

G|--------------------------------|
D|--------------------------------|
A|--------------------------------|
E|------------5----0--------------|
comments
We did not receive enough feedback on this tab! Please rate:
print report bad tab
1 2 3 4 5
I want to post or [tab]
guest
You may want to rate the tab now too:
select rating
Please do not post tabs as comments. Select "correction" instead!