Oops, an error
Loading. Please wait.

Walk The Line Tab

version 1
version 1

Intro

1,234 views 12 this week
no commentswrite comment
1 2 3 4 5
please rate
add to favorites
launch autoscroll
font size
0
reset
how to read this tab
guitar tuner
Tab Pro tools
  • play this tab
  • loop segment
  • change instrument
  • show fretboard
  • metronome
×
Best way to learn
"Walk The Line"
Autoscroll
slow
fast
+/-
esc
set tempo
stop
Contributor
-------------------------------------------------------------------------------
                             WALK THE LINE (Intro) - Johnny Cash
-------------------------------------------------------------------------------
Tabbed by: ArcticChod
Standard Tuning
This is as accurate as I could get it while staying acoustic, as the song is played with an electric
guitar. I've made this in response to the inaccurate intro by Simon Cade(the slayer).
If you don't know, the capital E represents the largest and deepest sounding string on your fretboard.
The lowercase e represents the smallest and highest pitch string.
I made this specifically for new guitar players with no capo.


e|---------------------------------------------------------------------------|
B|---------------------------------------------------------------------------|
G|---------------------------------------------------------------------------|
D|-----------------1-2---2-2-1----------------------------2------------------|
A|-----1-2---2-2-4-----2------4-2---2-2-1-----4-4-------4--2-1-----4---4---4-|
E|-2-4-----2----------------------2-------4-2-----2-4-2--------4-2---2---2---|

e|----------------------|
B|----------------------|
G|----------------------|
D|----------------------|
A|---4---4---4---4---4--|
E|-2---2---2---2---2----| I keep... and so on.


Have fun.


comments
We did not receive enough feedback on this tab! Please rate:
print report bad tab
1 2 3 4 5
I want to post or [tab]
guest
You may want to rate the tab now too:
select rating
Please do not post tabs as comments. Select "correction" instead!