Oops, an error
Loading. Please wait.

Wayfaring Stranger chords

version 1
version 1

Whole song

379,180 views 1,692 this week
7 commentsread comments
1 2 3 4 5
x 186
add to favorites
×
Save as Personal and add changes to this tab that will be seen only by you. Learn more ›
×
You can save this tab as Personal to edit and correct it or add notes. All changes will be seen only by you. Learn more »
launch autoscroll
font size
0
reset
transpose
0
reset
simplify chords
display chords
guitar tuner
edit
Autoscroll
slow
fast
+/-
esc
set tempo
stop
Author
Unregistered
Strumming
There is no strumming pattern for this song yet. and get +5 IQ
SONG:   WAYFARING STRANGER
ARTIST: JOHNNY CASH
ALBUM:  AMERICAN III - SOLITARY MAN
TAB BY: DON CZARSKI
E-MAIL: guitarzan7@hotmail.com

                        WAYFARING  STRANGER
                            JOHNNY CASH

[Intro]  

Am  Dm  E  Am


[Verse]

Am
I'm just a poor

Wayfaring stranger
             Dm
Travelling through
             Am
This world below

There is no sickness

No toil, nor danger
                Dm
In that bright land
E           Am
 To which i go

 
[Chorus]

            F
I'm going there
           C
To see my father
            F
And all my loved ones
            E  E7 E
Who've gone on
          Am
I'm just going over jordan
         Dm  E       Am
I'm just going over home


[Instrumental]

Am  Dm  E  Am      Am  Dm  E  Am


[Verse]

Am
I know dark clouds

Will gather round me
          Dm 
I know my way
             Am
Is hard and steep

But beautious fields

Arise before me
            Dm 
Where god redeems
Em            Am
There vigils keep


[Chorus]

            F
I'm going there
           C
To see my mother
                F
She said she'd meet me
        E  E7 E
When I come
          Am
I'm just going over jordan
         Dm  E       Am  (end dead on this chord)
I'm just going over home


ANY QUESTIONS, COMMENTS OR CORRECTIONS E-MAIL ME AT:
                      guitarzan7@hotmail.com

            
            
Suggest correction
Creating personal tab
Creating personal tab
You can edit any tab online and save it as your Personal.

You can edit, replace or remove any tab part or add personal notes – all changes will be seen only by you.

Personal tabs can be accessed anytime from any device, even offline.
Learn more »
comments
print report bad tab
7 comments total. Showing first comments.
+1 reply
Girshwin1414 10 Oct 11, 2005 02:58 PM

Great job on the chords :)

+2 reply
shigewara 102 Mar 31, 2013 08:36 AM

You did a good job, but the verse should end like this..

Dm
IN THAT BRIGHT LAND
E Am
TO WHICH I GO

And this is how Johnny picks it, at least as I can hear.

Intro:

Am
e|-------------------------------------0---
B|---------------1--(1)------------1-------
G|-----------------2-----------------2-----
D|-------2-2---------------2-2-------------
A|---0-----------------0-------------------
E|------------0-----------------0----------x2

Dm E
e|---------1---------1---1--------------------0---------
B|-------3-------------3---------------0---------0---0--
G|------------2---------------------1--------------1----
D|---0----------------------------2---------------------
A|---------------0------------------------2-------------
E|----------------------------0-------------------------

Am
e|-------------------------------------0---
B|---------------1--(1)------------1-------
G|-----------------2-----------------2-----
D|-------2-2---------------2-2-------------
A|---0-----------------0-------------------
E|------------0-----------------0----------


I might make a complete tab some day, and upload it here if I bother.

-1 reply
hbill 10 Aug 31, 2016 02:19 PM

What strumming pattern would you suggest for a beginner?

guest
Wanna post a correction for this tab? Suggest correction