Oops, an error
Loading. Please wait.

Well Meet Again Tab

version 1
version 1

Intro

Whole song

23,806 views 21 this week
1 commentread comment
1 2 3 4 5
accurate
x 7
add to favorites
launch autoscroll
font size
0
reset
how to read this tab
guitar tuner
Autoscroll
slow
fast
+/-
esc
set tempo
stop
Help us to improve Ultimate-Guitar.com Take our survey!
×
Johnny Cash - We'll Meet Again (Intro)

e|------2---------2---------3---------1---|
b|------3---------1---------2-------3---3-|
G|----2---------2---------2-------2-------|
D|-0-------0-1-------1-2--------0---------|
A|----------------------------------------|
E|----------------------------------------|

e|------2---------2---------3-----5---2---|
b|------3---------1---------2-----6---3---|
G|----2---------2---------2-------6---2---|
D|-0-------0-1-------1-2------2s5---------|
A|----------------------------------------|
E|----------------------------------------|
Suggest correction
comments
print report bad tab
1 comment total.
+5 reply
candycanechild 10 wrote on August 12 2007, 05:16 pm

the last chord played in the first bar shouldn't be a Dm, is should be x 0 2 2 2 1 (E A D G B e) plucked the same way as the Dm is shown.

guest
You may want to rate the tab now too:
select rating
Wanna post a correction for this tab? Suggest correction