Oops, an error
Loading. Please wait.

Wide Open Road Tab

version 1
version 1

Solo

684 views 3 this week
no commentswrite comment
1 2 3 4 5
please rate
add to favorites
launch autoscroll
font size
0
reset
how to read this tab
guitar tuner
Autoscroll
slow
fast
+/-
esc
set tempo
stop
Help us to improve Ultimate-Guitar.com Take our survey!
×
Contributor
Solo:

e|--7--6h7--7----7--6h7--7-----7--6h7--7----7--6h7--7-----------------------|
B|--9--8h9----9--9--8h9-----9--9--8h9----9--9--8h9----9---------------------|
G|--------------------------------------------------------------------------|
D|--------------------------------------------------------------------------|
A|--------------------------------------------------------------------------|
E|--------------------------------------------------------------------------|

e|--------------------------------------------------------------------------|
B|--5--4h5--5----5--4h5--5----5--4h5--5----5--4h5--5------------------------|
G|--6--5h6----6--6--5h6----6--6--5h6----6--6--5h6----6----------------------|
D|--------------------------------------------------------------------------|
A|--------------------------------------------------------------------------|
E|--------------------------------------------------------------------------|

e|--7--6h7--7----7--6h7--7-----7--6h7--7----7--6h7--7-----------------------|
B|--9--8h9----9--9--8h9-----9--9--8h9----9--9--8h9----9---------------------|
G|--------------------------------------------------------------------------|
D|--------------------------------------------------------------------------|
A|--------------------------------------------------------------------------|
E|--------------------------------------------------------------------------|

e|------6--6-----6---6--6------------7--7------7----------------------------|
B|----7-------7----7--------------7--------7---7----------------------------|
G|--6----------------------6---8---------------8----------------------------|
D|--------------------------------------------------------------------------|
A|--------------------------------------------------------------------------|
E|--------------------------------------------------------------------------|

e|--------------------------------------------------------------------------|
B|--------------2--------------------------2--------------------------------|
G|-----0--1--4-----4--1--4--------0--1--4-----4--1--4---0--1--2--2--2--2----|
D|--4-----------------------4--4--------------------------------------------|
A|--------------------------------------------------------------------------|
E|--------------------------------------------------------------------------|

e|--------------------------------------------------------------------------|
B|------------------------------------------------2-------------------------|
G|--1--2--2---0--1--2--2--2--2--1--2-----0--1--4-----4--1--4---------0--1--4|
D|------------------------------------4------------------------4--4---------|
A|--------------------------------------------------------------------------|
E|--------------------------------------------------------------------------|

e|--------------------------------------------------------------------------|
B|---2----------------------------------------------------------------------|
G|------4--1--4-------------------------------------------------------------|
D|--------------------------------------------------------------------------|
A|--------------------------------------------------------------------------|
E|------------------4--4--4--4--4--3--2--0------4--2--0---------------------|

Suggest correction What's this?
You can suggest a correction to this tab. Community and Mods will review your correction and vote to approve or reject it.
comments
We did not receive enough feedback on this tab! Please rate:
print report bad tab
1 2 3 4 5
I want to post or [tab]
guest
You may want to rate the tab now too:
select rating
Please do not post tabs as comments. Select "correction" instead!