Oops, an error
Loading. Please wait.

You Are My Sunshine tab

version 2
version 2

Whole song

Interactive

17,524 views 63 this week
1 commentread comment
1 2 3 4 5
x 6
add to favorites
×
Save as Personal and add changes to this tab that will be seen only by you. Learn more ›
×
You can save this tab as Personal to edit and correct it or add notes. All changes will be seen only by you. Learn more »
launch autoscroll
font size
0
reset
how to read this tab
guitar tuner
edit
Autoscroll
slow
fast
+/-
esc
set tempo
stop
Author
Difficulty
                                  ~~~~~~~~~~~~~~~~~~~~~~~~~~~~~~~~~~~~~~~~
                                           You Are My Sunshine
                                               Johnny Cash
                                                Unearthed
                                  ~~~~~~~~~~~~~~~~~~~~~~~~~~~~~~~~~~~~~~~~

Tabbed by: Connor O.
Tuning: Standard

This is the lead guitar. There's another playing harmony lines but I 
haven't figured it out yet. Maybe another day I will. 

Key:
where # represents a fret number

#h# - hammer
#p# - pull
/ \ - slides, up and down respectively.



Intro:


  0:02

e|-----------------------------------------------------------------|
B|---------0---0/2-----2-----------2---0---0/2---------------------|
G|-----2---------------------------------------2-------2-----------|
D|-2---------------------------------------------------------------|
A|-----------------------------------------------------------------|
E|-----------------------------------------------------------------|
   *   *   *   *   *   *   *   *   *   *   *   *   *   *   *   *
               


e|-----------------------------------------------------------------|
B|---------2---3---------7-----5-------3-------2---2---2-------2---|
G|-2---2h4-----------------------------------------2-----2---------|
D|---------------------7---7\6-----6\4-----4\2-----2---------2-----|
A|-----------------------------------------------------------------|
E|-----------------------------------------------------------------|
   *   *   *   *   *   *   *   *   *   *   *   *   *   *   *   *


                       @=5/7
e|-----------------------------------------------------------------|
B|---------2---3---------7-----7-------5---3-----------------------|
G|-2---2-4---2---------------------------------4/6~~~\-2-----------|
D|---------------------@---7-7-----7\6-------------------------2---|
A|-----------------------------------------------------------------|
E|-----------------------------------------------------------------|
   *   *   *   *   *   *   *   *   *   *   *   *   *   *   *   *



e|-----------------------------------------------------------------|
B|-----0/1-2-------2-------0-----------2---------------------------|
G|-2-------------2-------------------------2-----------------------|
D|-------------2-------2-----------2-------------------------------|
A|-----------------------------------------------------------------|
E|-----------------------------------------------------------------|
   *   *   *   *   *   *   *   *   *   *   *   *   *   *   *   *


Verse 1:

  0:27
A  
                                                   D              A     
The other night dear as I lay sleeping I dreamed I held you in my arms 

           D                     A                   E          A

But when I awoke, dear, I was mistaken so I bowed my head and I cried



Chorus:

  0:51

You are my sunshine, my only sunshine You make me happy when skies are gray 
You'll never know dear how much I love you Please don't take my sunshine away



Solo:  


  1:16


e|-----------------------------------------------------------------|
B|---------0---0/2-----2-----------2---0---2-----------------------|
G|-----2---------------------------------------2-------2-----------|
D|-2---------------------------------------------------------------|
A|-------------------------------------------------------------2---|
E|-----------------------------------------------------------------|
   *   *   *   *   *   *   *   *   *   *   *   *   *   *   *   *
               

                       @=5/7
e|-----------------------------------------------------------------|
B|---------2---3---------7-----5-------3-------2-------2-------2---|
G|-2---2h4---2-------------------------------------------2---2-----|
D|---------------------@---7-7-----6\4-----4-------2---------------|
A|---------------------------------------------------------4-------|
E|-----------------------------------------------------------------|
   *   *   *   *   *   *   *   *   *   *   *   *   *   *   *   *


                       @=5/7
e|-----------------------------------------------------------------|
B|---------2---3---------7-----7-----5-----3-----------------------|
G|-2---2-4---2---------------------------------4/6~\~4-2-----------|
D|---------------------@---7-7---7\6---6\4---------------------2---|
A|-----------------------------------------------------------------|
E|-----------------------------------------------------------------|
   *   *   *   *   *   *   *   *   *   *   *   *   *   *   *   *



e|-----------------------------------------------------------------|
B|-----0/1-2-------2-2h3---------------0/2-------------------------|
G|-2-----------------------4---------------2-----------------------|
D|-----------------------------------------------------------------|
A|-----------------------------------------------------------------|
E|-----------------------------------------------------------------|
   *   *   *   *   *   *   *   *   *   *   *   *   *   *   *   *



Verse 2:

  1:40

I'll always loved you and made you happy And nothing else could between 
But now you've left me to love another You've shattered all of my dreams



Chorus:

  2:04

You are my sunshine, my only sunshine You make me happy when skies are gray 
You'll never know dear, how much I love you Please don't take my sunshine awayine away
Suggest correction
Creating personal tab
Creating personal tab
You can edit any tab online and save it as your Personal.

You can edit, replace or remove any tab part or add personal notes – all changes will be seen only by you.

Personal tabs can be accessed anytime from any device, even offline.
Learn more »
comments
print report bad tab
1 comment total.
+1 reply
CaliforniaBP 229 Sep 10, 2015 12:11 PM, edited at 04:15 pm

oops

guest
You may want to rate the tab now too:
select rating
Wanna post a correction for this tab? Suggest correction