Oops, an error
Loading. Please wait.

You Remembered Me chords

55 views 1 this week
no commentswrite comment
1 2 3 4 5
3 more votes to show rating
add to favorites
×
Save as Personal and add changes to this tab that will be seen only by you. Learn more ›
×
You can save this tab as Personal to edit and correct it or add notes. All changes will be seen only by you. Learn more »
launch autoscroll
font size
0
reset
transpose
0
reset
simplify chords
display chords
guitar tuner
edit
Autoscroll
slow
fast
+/-
esc
set tempo
stop
Strumming
There is no strumming pattern for this song yet. and get +5 IQ
You Remembered Me:Johnny Cash.
Album - The Sound Of Johnny Cash - on
COLUMBIA Records in 1962.


INTRO:
------------------------------------------------
------------------------------------------------
------------------------------------------------
------------------------------------------------
-1----3--4-4-4-4-4---3-3-3-3-3---1-1-3-3-1------
----4----------------------------------------4--


#1.
Ab                 Eb7             Db             Ab
You were young and needed love and I was wild and free.
Db                 Ab                Eb                Ab
But every time you said a prayer you said a prayer for me.
            Eb                Db           Ab
By the ring upon your hand we vowed fideli-ty.
Db                    Ab           Eb             Ab
There were times that I forgot but you remembered me.
 Db                    Ab           Eb             Ab
(There were times that I forgot but you remembered me.)

CHORUS:
Eb                       Ab
You remembered only that wedding bells would ring.
Eb                     Db                  Eb
You remembered only to count the days till spring.
Ab                           Db             Ab
You knew only love and honor but I couldn't see.
  Db          Ab             Eb             Ab
I regret that I forgot cause you remembered me.
   Db          Ab             Eb             Ab
(I regret that I forgot cause you remembered me.)


INTERLUDE:

------------------------------------------------
------------------------------------------------
------------------------------------------------
------------------------------------------------
-1----3--4-4-4-4-4---3-3-3-3-3---1-1-3-3-1------
----4----------------------------------------4--


#2.
                Eb            Db            Ab
I believed that promises were made to break apart.
Db               Ab          Eb                  Ab
But every time I broke a vow I always broke your heart.
                     Eb            Db               Ab
So here's to you God bless you now wherever you may be
Db                    Ab           Eb             Ab
There were times that I forgot but you remembered me.
 Db                    Ab           Eb             Ab
(There were times that I forgot but you remembered me.)


CHORUS:
Eb                       Ab
You remembered only that wedding bells would ring.
Eb                     Db                  Eb
You remembered only to count the days till spring.
Ab                           Db             Ab
You knew only love and honor but I couldn't see.
  Db          Ab             Eb             Ab
I regret that I forgot cause you remembered me.
   Db          Ab             Eb             Ab
(I regret that I forgot cause you remembered me.)


OUTRO:
------------------------------------------------
------------------------------------------------
------------------------------------------------
------------------------------------------------
-1----3--4-4-4-4-4---3-3-3-3-3---1-1-3-3-1------
----4----------------------------------------4--

------------------------------------------------
------------------------------------------------
------------------------------------------------
------------------------------------------------
----------3---1---------------------------------
-----4-4----------4-----------------------------



A sixties smash from Kraziekhat.


            
            
Suggest correction
Creating personal tab
Creating personal tab
You can edit any tab online and save it as your Personal.

You can edit, replace or remove any tab part or add personal notes – all changes will be seen only by you.

Personal tabs can be accessed anytime from any device, even offline.
Learn more »
Give kudos to tab author, rate the tab!
1 2 3 4 5
comments
print report bad tab
guest
You may want to rate the tab now too:
select rating
Wanna post a correction for this tab? Suggest correction