Oops, an error
Loading. Please wait.

No Bones About It Tab

271 views 9 this week
no commentswrite comment
1 2 3 4 5
please rate
add to favorites
launch autoscroll
font size
0
reset
how to read this tab
guitar tuner
Autoscroll
slow
fast
+/-
esc
set tempo
stop
Help us to improve Ultimate-Guitar.com Take our survey!
×
Author
#----------------------------------PLEASE NOTE---------------------------------#
#This file is the author's own work and represents their interpretation of the #
#song. You may only use this file for private study, scholarship, or research. #
#------------------------------------------------------------------------------##

                                NO BONES ABOUT IT
                           As recorded by Johnny Crash
                   (From the 1990 Album NEIGHBOURHOOD THREAT)

Words and Music by August Worchell, and Vicki James Wirght
Transcribed by Noah Copeland

Gtr I (E A D G B E) - 'August - Rhythm'
Gtr II (E A D G B E) - 'Christopher - Rhythm'
Gtr III (E A D G B E) - 'August - Lead'

   Intro
    Q=134
    B5                              E5           A5
   4/4
    Gtrs I, II
    E E E Q  E E E   H    E E E E   E E E Q  E E E   Q.   E E E Q
||-----------------|--------------|----------------|---------------||
||o----------------|--------------|----------------|--------------o||
||--4-4-4----4-4-4-|------4-4-4-4-|--------------2-|------2-2-2----||
||--4-4-4----4-4-4-|------4-4-4-4-|-2-2-2----2-2-2-|------2-2-2----||
||o-2-2-2----2-2-2-|------2-2-2-2-|-2-2-2----2-2-0-|------0-0-0---o||
||-----------------|--------------|-0-0-0----0-0---|---------------||


  B5   A5 E5                          B5   A5 E5
  H   +E  Q  Q    Q   E E E E E E E   H   +E  Q  E   +E  E Q  H
|--------------|--------------------|--------------|-------------|
|--------------|--------------------|--------------|-------------|
|-4---(4)-2----|--------------------|-4---(4)-2----|-------------|
|-4---(4)-2--2-|-(2)----------------|-4---(4)-2--2-|-(2)-2-2--2--|
|-2---(2)-0--2-|-(2)--------0-2-4-2-|-2---(2)-0--2-|-(2)-2-2--2--|
|------------0-|-(0)--0-2-4---------|------------0-|-(0)-0-0--0--|


  B5           A5 E5
  H            Q   Q          E   E    E E  E    E Q
|-------------------------|---------------------------|
|-------------------------|---------------------------|
|-4------------2----------|---------------------------|
|-4------------2---2------|---------------------------|
|-2------------0---2------|--------------0--2----4-2--|
|------------------0------|---0---2----4--------------|
|
| Gtr III
| Q.      Q.       Q         +E   Q.        H
|-------------------------|---------------------------|
|-7-------9-------10------|-(10)-12--------13---------|
|-9b11---11b13----12b14===|=(12)-14b16-----15b17------|
|-------------------------|---------------------------|
|-------------------------|---------------------------|
|-------------------------|---------------------------|


  B5        A5  E5
   H        Q   Q    +W
|------------------|-------------|
|------------------|-------------|
|--4--------2------|-------------|
|--4--------2---2--|-(2)---------|
|--2--------0---2--|-(2)---------|
|---------------0--|-(0)---------|
|
|               ~~~~~~~~~   
|  E E E  E E E Q    +H     H
|-10-7-7-10-7-7----|-------------|
|-10-7-7-10-7-7----|-------------|
|------------------|--------x\\\-|
|---------------9--|-(9)----x\\\-|
|------------------|-------------|
|------------------|-------------|


   Verse
    B5                              E5           A5
    Gtrs I, II
    E E E Q  E E E   H    E E E E   E E E Q  E E E   Q.   E E E Q
||-----------------|--------------|----------------|----------------||
||o----------------|--------------|----------------|---------------o||
||--4-4-4----4-4-4-|------4-4-4-4-|--------------2-|------2-2-2-----||
||--4-4-4----4-4-4-|------4-4-4-4-|-2-2-2----2-2-2-|------2-2-2-----||
||o-2-2-2----2-2-2-|------2-2-2-2-|-2-2-2----2-2-0-|------0-0-0----o||
||-----------------|--------------|-0-0-0----0-0---|----------------||


    B5                                  E5             A5
    E E E +Q   E E E   +H     E E E E   E E E +Q   E E E   +Q.   E E E +Q
||-------------------|----------------|------------------|------------------||
||o------------------|----------------|------------------|-----------------o||
||--4-4-4-(4)--4-4-4-|-(4)----4-4-4-4-|----------------2-|-(2)---2-2-2-(2)--||
||--4-4-4-(4)--4-4-4-|-(4)----4-4-4-4-|-2-2-2-(2)--2-2-2-|-(2)---2-2-2-(2)--||
||o-2-2-2-(2)--2-2-2-|-(2)----2-2-2-2-|-2-2-2-(2)--2-2-0-|-(0)---0-0-0-(0)-o||
||-------------------|----------------|-0-0-0-(0)--0-0---|------------------||


 Chorus
  B5   A5 E5                          B5   A5 E5
  H   +E  Q  Q    Q   E E E E E E E   H   +E  Q  E   +E  E Q  H
|--------------|--------------------|--------------|-------------|
|--------------|--------------------|--------------|-------------|
|-4---(4)-2----|--------------------|-4---(4)-2----|-------------|
|-4---(4)-2--2-|-(2)----------------|-4---(4)-2--2-|-(2)-2-2--2--|
|-2---(2)-0--2-|-(2)--------0-2-4-2-|-2---(2)-0--2-|-(2)-2-2--2--|
|------------0-|-(0)--0-2-4---------|------------0-|-(0)-0-0--0--|



  H   +E  Q  Q    Q   E E E E E E E   H   +E  Q  E   +W  
|--------------|--------------------|--------------|-------------|
|--------------|--------------------|--------------|-------------|
|-4---(4)-2----|--------------------|-4---(4)-2----|-------------|
|-4---(4)-2--2-|-(2)----------------|-4---(4)-2--2-|-(2)---------|
|-2---(2)-0--2-|-(2)--------0-2-4-2-|-2---(2)-0--2-|-(2)---------|
|------------0-|-(0)--0-2-4---------|------------0-|-(0)---------|


   Verse
    B5                              E5           A5
    E E E Q  E E E   H    E E E E   E E E Q  E E E   Q.   E E E Q
||-----------------|--------------|----------------|----------------||
||o----------------|--------------|----------------|---------------o||
||--4-4-4----4-4-4-|------4-4-4-4-|--------------2-|------2-2-2-----||
||--4-4-4----4-4-4-|------4-4-4-4-|-2-2-2----2-2-2-|------2-2-2-----||
||o-2-2-2----2-2-2-|------2-2-2-2-|-2-2-2----2-2-0-|------0-0-0----o||
||-----------------|--------------|-0-0-0----0-0---|----------------||


    B5                                  E5             A5
    E E E +Q   E E E   +H     E E E E   E E E +Q   E E E   +Q.   E E E +Q
||-------------------|----------------|------------------|------------------||
||o------------------|----------------|------------------|-----------------o||
||--4-4-4-(4)--4-4-4-|-(4)----4-4-4-4-|----------------2-|-(2)---2-2-2-(2)--||
||--4-4-4-(4)--4-4-4-|-(4)----4-4-4-4-|-2-2-2-(2)--2-2-2-|-(2)---2-2-2-(2)--||
||o-2-2-2-(2)--2-2-2-|-(2)----2-2-2-2-|-2-2-2-(2)--2-2-0-|-(0)---0-0-0-(0)-o||
||-------------------|----------------|-0-0-0-(0)--0-0---|------------------||


 Chorus
  B5   A5 E5                          B5   A5 E5
  H   +E  Q  Q    Q   E E E E E E E   H   +E  Q  E   +E  E Q  H
|--------------|--------------------|--------------|-------------|
|--------------|--------------------|--------------|-------------|
|-4---(4)-2----|--------------------|-4---(4)-2----|-------------|
|-4---(4)-2--2-|-(2)----------------|-4---(4)-2--2-|-(2)-2-2--2--|
|-2---(2)-0--2-|-(2)--------0-2-4-2-|-2---(2)-0--2-|-(2)-2-2--2--|
|------------0-|-(0)--0-2-4---------|------------0-|-(0)-0-0--0--|

  H   +E  Q  Q    Q   E E E E E E E   H   +E  Q  E   +W  
|--------------|--------------------|--------------|-------------|
|--------------|--------------------|--------------|-------------|
|-4---(4)-2----|--------------------|-4---(4)-2----|-------------|
|-4---(4)-2--2-|-(2)----------------|-4---(4)-2--2-|-(2)---------|
|-2---(2)-0--2-|-(2)--------0-2-4-2-|-2---(2)-0--2-|-(2)---------|
|------------0-|-(0)--0-2-4---------|------------0-|-(0)---------|




August's Guitar Solo:
  Gtr III
  ~~~~~~~~~~         ~~~~~~~~~
|---------------------------------------------------------------|
|-7--------------------------------7-9b11r(9)-9b11r(9)-9b11r(9)-|
|-7--------------------------------7-9b11r(9)-9b11r(9)-9b11r(9)-|
|-----------9\--------------------------------------------------|
|----------------x-x-5------------------------------------------|
|-------------------------7---6h7-------------------------------|

|------7-7------7-7------7-7------------------------------------|
|------7-7------7-7------7-7----------7---7--7--7--7--7--7------|
|-9b11-----9b11-----9b11-----9b11r(9)-7---7--7--7--7--7--7------|
|---------------------------------------------------------------|
|---------------------------------------------------------------|
|---------------------------------------------------------------|

|-22p19----19--------------------------------------------------|
|-------22----22--19----19-------------------------------------|
|--------------------21----21-19----21-19----------------------|
|--------------------------------21-------21-19----21-19-------|
|-----------------------------------------------21-------21-\--|
|--------------------------------------------------------------|

             TP
|------------19-19-19-19-19-19---------7------------|
|-7--7--7--7-22-22-22-22-22-22---10b12---10p7-10b12-|
|-7--7--7--7----------------------------------------|
|---------------------------------------------------|
|---------------------------------------------------|
|---------------------------------------------------|

                                             ~~~~~~~~~~~~
|-------7------10b12--10-7-7-10-7-7/---17----------------|
|-10b12---10p7--------10-7-7-10-7-7/------17-------------|
|--------------------------------------------16b18-------|
|--------------------------------------------------------|
|--------------------------------------------------------|
|--------------------------------------------------------|

 B5   A5 E5                B5   A5 E5
               ~~~~~~~~~~~~~~~~~~~~~~~~~~~~~~~~~~~~
|------------|-----------|------------|------------|
|------------|-----------|------------|------------|
|-2b4--------|-[2]b4-----|------------|------------|
|------------|-----------|------------|------------|
|------------|-----------|------------|------------|
|------------|-----------|------------|------------|
| H   +E  Q  Q    Q        H   +E  Q  E   +W  
|--------------|---------|--------------|-------------|
|--------------|---------|--------------|-------------|
|--------------|---------|--------------|-------------|
|-1---(1)-2----|---------|-1---(1)-2----|-------------|
|-2---(2)-0--2-|-(2)-----|-2---(2)-0--2-|-(2)---------|
|------------0-|-(0)-----|------------0-|-(0)---------|

Gtr I, II continue pattern several times,
Then repeat chorus (adlib solo).


Ending:
   E E E Q  E E E   W
|-----------------|-------|
|-----------------|-------|
|--4-4-4----4-4-4-|-------|
|--4-4-4----4-4-4-|-------|
|--2-2-2----2-2-2-|-------|
|-----------------|-------|

All The Way In LOVE!!!

Duration Legend
---------------
W - whole; H - half; Q - quarter; E - 8th; S - 16th; T - 32nd; X - 64th; a - acciaccatura
+ - note tied to previous; . - note dotted; .. - note double dotted
Uncapitalized letters represent notes that are staccato (1/2 duration)
Irregular groupings are notated above the duration line
Duration letters will always appear directly above the note/fret number it represents the
duration for.  Duration letters with no fret number below them represent rests.  Multi-
bar rests are notated in the form Wxn, where n is the number of bars to rest for.  Low
melody durations appear below the staff

Tablature Legend
----------------
 h   - hammer-on
 p   - pull-off
 b   - bend
 pb  - pre-bend
 r   - bend release (if no number after the r, then release immediately)
 /\  - slide into or out of (from/to "nowhere")
 s   - legato slide
 S   - shift slide
  - natural harmonic
[n]  - artificial harmonic
n(n) - tapped harmonic
 ~   - vibrato
 tr  - trill
 T   - tap
 TP  - trem. picking
 PM  - palm muting
\n/  - tremolo bar dip; n = amount to dip
 \n  - tremolo bar down
 n/  - tremolo bar up
/n\  - tremolo bar inverted dip
 =   - hold bend; also acts as connecting device for hammers/pulls
 <>  - volume swell (louder/softer)
 x   - on rhythm slash represents muted slash
 o   - on rhythm slash represents single note slash

Misc Legend
-----------
 |  - bar
||  - double bar
||o - repeat start
o|| - repeat end
*|  - double bar (ending)
 :  - bar (freetime)
 $  - Segno
 &  - Coda
Tempo markers -  = BPM(8/16=s8/s16), where s8 = swing 8ths, s16 = swing 16ths


***************************************************************************************
* Generated using Power Tab Editor by Brad Larsen - http://powertab.guitarnetwork.org *
***************************************************************************************
Suggest correction
What's this?
You can suggest a correction to this tab. Community and Mods will review your correction and vote to approve or reject it.
comments
We did not receive enough feedback on this tab! Please rate:
print report bad tab
1 2 3 4 5
guest
You may want to rate the tab now too:
select rating
Please do not post tabs as comments. Select "correction" instead!