Oops, an error
Loading. Please wait.

The Wrote And The Writ Live tab

version 2
version 2

Whole song

Interactive

433 views 6 this week
no commentswrite comment
1 2 3 4 5
2 more votes to show rating
add to favorites
×
Save as Personal and add changes to this tab that will be seen only by you. Learn more ›
×
You can save this tab as Personal to edit and correct it or add notes. All changes will be seen only by you. Learn more »
launch autoscroll
font size
0
reset
how to read this tab
guitar tuner
edit
Autoscroll
slow
fast
+/-
esc
set tempo
stop
Author
Difficulty
Tabbed by: ChrisFitz
Email: 0Chrisfitz@gmail.com

The Wrote and the Writ (Live)

This is how I play the live version of The Wrote and The Writ. 
It is very accurate or at least it sounds very similar. I placed the
chords that I switched to exactly above where I would switch to them.
Special thanks to beertaker and George, who are the orginal tabbers of
this song. I based this version off of their versions so make sure to
give them some credit. However, I do believe this version to be more
correct. Thanks!

Tuning: Standard (EADGBE)
Capo: Fret 2

 Bm    F#     G     D     A    D5    Em
e|-2-----2-----3-----2-----0-----5-----0-
B|-3-----2-----3-----3-----2-----3-----0-
G|-4-----3-----4-----2-----2-----2-----0-
D|-4-----4-----5-----0-----2-----0-----2-
A|-2-----4-----5-----x-----0-----x-----2-
E|-2-----2-----3-----x-----x-----x-----0-

Verse:

   Bm          F#   G          D                A
e|----2-----------2---3-----------0h2p0-----------0------------------------------
B|----3---3-------2---3--3--------3-----3---------2-----2------------------------
G|----4-------4---3---4----4----------------------2---------2--------------------
D|-----------------------------0-----------0--0h2-----2---2----------------------
A|--2-------2--------------------------------------------------------------------
E|--------------2---3------------------------------------------------------------

   Bm          F#   G          D                A    D
e|----2-----------2---3-----------0h2p0-----------0-----0h2-----0h2--------------
B|----3---3-------2---3--3--------3-----3---------2-----3-------3-----3----------
G|----4-------4---3---4----4----------------------2---------2-------2------------
D|-----------------------------0-----------0--0h2----0--------0---------0--------
A|--2-------2--------------------------------------------------------------------
E|--------------2---3------------------------------------------------------------

Chorus:

   D5              A      Bm         D                A    
e|--5----5-----------0---0---2----------0h2p0-----------0------------------------
B|---------3---------2---2---3--3-------3-----3---------2----2-------------------
G|--------------2----2---2---4----4---------------------2--------2---------------
D|--0--0------0----2---2-------------0-----------0--0h2----2---2-----------------
A|-------------------------2-----------------------------------------------------
E|-------------------------------------------------------------------------------

   D5              A      Bm         D                A    D
e|--5----5-----------0---0---2----------0h2p0-----------0-----0h2-----0h2--------
B|---------3---------2---2---3--3-------3-----3---------2-----3-------3-----3----
G|--------------2----2---2---4----4---------------------2---------2-------2------
D|--0--0------0----2---2-------------0-----------0--0h2----0--------0---------0--
A|-------------------------2-----------------------------------------------------
E|-------------------------------------------------------------------------------

            
            
Suggest correction
Creating personal tab
Creating personal tab
You can edit any tab online and save it as your Personal.

You can edit, replace or remove any tab part or add personal notes – all changes will be seen only by you.

Personal tabs can be accessed anytime from any device, even offline.
Learn more »
Give kudos to tab author, rate the tab!
1 2 3 4 5
comments
print report bad tab
guest
You may want to rate the tab now too:
select rating
Wanna post a correction for this tab? Suggest correction