Oops, an error
Loading. Please wait.

Criminals Tab

888 views 3 this week
no commentswrite comment
1 2 3 4 5
2 more votes to show rating
add to favorites
launch autoscroll
font size
0
reset
how to read this tab
guitar tuner
Autoscroll
slow
fast
+/-
esc
set tempo
stop
Help us to improve Ultimate-Guitar.com Take our survey!
×
Author
Difficulty
intermediate
-------------------------------------------------------------------------------
                         Criminals - Johnny Foreigner
-------------------------------------------------------------------------------
Tabbed by: robneedsholiday
Email: robneedsaholiday@hotmail.com

Tuning: Standard

Intro:

We traded our secrets for shortcuts and blankets. 

We mapped out our futures as clouds drew around us.

e|-5-5-5-5-5--4-4-4---0-0-0---|-5-5-5-5-5--4-4-4---0-0-0---|
B|-5-5-5-5-5--5-5-5---0-0-0---|-5-5-5-5-5--5-5-5---0-0-0---|
G|-6-6-6-6-6--6-6-6---1-1-1---|-6-6-6-6-6--6-6-6---1-1-1---|
D|-7-7-7-7-7--6-6-6---2-2-2---|-7-7-7-7-7--6-6-6---2-2-2---|
A|-7-7-7-7-7--4-4-4---2-2-2---|-7-7-7-7-7--4-4-4---2-2-2---|
E|-5-5-5-5-5----------0-0-0---|-5-5-5-5-5----------0-0-0---|

Held artless embraces, like gaslight romantics

Who never expected the end so soon.

e|--------------------------------------------------------------------------|
B|--------------------------------------------------------------------------|
G|-14-14-14--13-13-13--18-18-18--13-13-13---14-14-14-14-14---18--13--14-----|
D|--------------------------------------------------------------------------|
A|-12-12-12--11-11-11--16-16-16--11-11-11---12-12-12-12-12---16--11--12-----|
E|--------------------------------------------------------------------------|

Pre-verse:

e|----------------------------------------------------------------------------------|
B|-----------------------------------------7-7-9-9-10-10----------------------7-7-9-|
G|-6-6-6-6-6-6-6-6-------------6-6-7-7-9-9------------------------6-6-7-7-9-9-------|
D|-7-7-7-7-7-7-7-7-----7-7-9-9----------------------------7-7-9-9-------------------|
A|-0-0-0-0-0-0-0-0------------------------------------------------------------------|
E|----------------------------------------------------------------------------------|

Verse:

With the cold dead eyes of ex-ramshackle DJs....

e|-5-5-5-5----------0-xxxx-0-xxxx--------------------------------|
B|-5-5-5-5----------0-xxxx-0-xxxx--------------------------------|
G|-6-6-6-6---11-9---1-xxxx-1-xxxx--------------------------------|
D|-7-7-7-7----------2-xxxx-2-xxxx--------------------------------|
A|-7-7-7-7---9--7---2-xxxx-2-xxxx--------------------------------|
E|-5-5-5-5----------0-xxxx-0-xxxx--------------------------------|

Repeat 3x

On the fourth time:

Let the bodies in the club match the bodies in the ground..........

e|-5-5-5-5----------0-0---------0-0---0--------------------------|
B|-5-5-5-5----------0-0---------0-0---0---------------------------|
G|-6-6-6-6---11-9---1-1---------1-1---0---------------------------|
D|-7-7-7-7----------2-2pickslide2-2---0---------------------------|
A|-7-7-7-7---9--7---2-2---------2-2---0---------------------------|
E|-5-5-5-5----------0-0---------0-0---0---------------------------|
                                             

Chorus:

Misplace yr confidence, these boys are falling atoms

e|-0-0-0----------------0-0-0------------------------------------------------------|
B|-2-2-2----------------2-2-2------------------------------------------------------|
G|-2-2-2--4--6----------2-2-2--4--6------------------------------------------------|
D|-2-2-2--------6--7-7--2-2-2--------6--7-7----------------------------------------|
A|-0-0-0--2--4----------0-0-0--2--4------------------------------------------------|
E|--------------4--5-5---------------4--5-5----------------------------------------|

Happy hour for the wallflowers

e|--------------------------------------------------------|
B|--------------------------------------------------------|
G|-7-7-7-7--1-1-1-1---------------------------------------|
D|-7-7-7-7--2-2-2-2---------------------------------------|
A|-5-5-5-5--2-2-2-2---------------------------------------|
E|----------0-0-0-0---------------------------------------|

Repeat 2x

Post-chorus:

Yr town's run by criminals, closed yr clubs and sold you out for what. 
Yr towns run by criminals, they sold you out, they sold you out.

e|-0-----------------0------0-----|
B|-2-------------2-3-5--2-3-5-----|
G|-2------------------------------|
D|-2------------------------------|
A|-0------------------------------|
E|--------------------------------|
 
Yr town's run by criminals, sold you out and closed yr clubs for what.
Yr town's run by criminals, yr almost all, yr almost all that's left.

e|-0-----0-----0---------0-------0--------------------------|
B|-2-----2-----0-----2-3-5---2-3-5--------------------------|
G|-2-----1-----2--------------------------------------------|
D|-2-----2-----0--------------------------------------------|
A|-0-----0-----2--------------------------------------------|
E|-------------0--------------------------------------------|

Repeat pre-verse

Repeat verse

Repeat chorus

Repeat post-chorus


"Solo"/"breakdown"

...Yr almost all that's left

e|-----0--------0--------0---9-5-7-5------------------------------------------|
B|-2-3-5----2-3-5----2-3-5----------------------------------------------------|
G|------------------------------------7-7-7-7--6-6-6-6--4-4-4-4--2-2-2-2------|
D|------------------------------------7-7-7-7--6-6-6-6--4-4-4-4--2-2-2-2------|
A|------------------------------------5-5-5-5--4-4-4-4--2-2-2-2--0-0-0-0------|
E|----------------------------------------------------------------------------|

e|-----0---9-5-7-5------0--9-5-7-5--------------------------------------------------|
B|-2-3-5------------2-3-5-----------------------------------------------------------|
G|---------------------------------7-7-7-7--6-6-6-6--4-4-4-4--2-2-2-2---------------|
D|---------------------------------7-7-7-7--6-6-6-6--4-4-4-4--2-2-2-2---------------|
A|---------------------------------5-5-5-5--4-4-4-4--2-2-2-2--0-0-0-0---------------|
E|----------------------------------------------------------------------------------|

e|---------------------------------------------------------------------------|
B|---------------------------------------------------------------------------|
G|-7-7-7-7--6-6-6-6--4-4-4-4--2-2-2-2----------------------------------------|
D|-7-7-7-7--6-6-6-6--4-4-4-4--2-2-2-2----------------------------------------|
A|-5-5-5-5--4-4-4-4--2-2-2-2--0-0-0-0----------------------------------------|
E|---------------------------------------------------------------------------|

I wish cameras could capture this

e|---------------------------------------------------------------------------|
B|---------------------------------------------------------------------------|
G|-7-7-7-7--6-6-6-6--4-4-4-4--2-2-2-2--7-7-7-7--6-6-6-6--4-4-4-4-------------|
D|-7-7-7-7--6-6-6-6--4-4-4-4--2-2-2-2--7-7-7-7--6-6-6-6--4-4-4-4--6-6-6-6----|
A|-5-5-5-5--4-4-4-4--2-2-2-2--0-0-0-0--5-5-5-5--4-4-4-4--2-2-2-2--6-6-6-6----|
E|----------------------------------------------------------------4-4-4-4----|

Outro

Yr town's run by criminals, closed yr clubs and sold you out for what
Yr town's run by criminals, they sold you out they sold you out.
Yr town's run by criminals, sold you out and closed yr clubs for what.
Yr town's run by criminals, yr almost all, yr almost all that's left.

e|---------------------------------------------------------------------------|
B|---------------------------------------------------------------------------|
G|-------------------------------------------7-7-7-7-7-7-7-7-----------------|
D|-7-7-7-7-7-7-7-7-7-7-7-7--4-4-4-4-4-4-4-4--7-7-7-7-7-7-7-7-----------------|
A|-7-7-7-7-7-7-7-7-7-7-7-7--4-4-4-4-4-4-4-4--5-5-5-5-5-5-5-5-----------------|
E|-5-5-5-5-5-5-5-5-5-5-5-5--2-2-2-2-2-2-2-2----------------------------------|

e|---------------------------------------------------------------------------|
B|---------------------------------------------------------------------------|
G|-------------------------------------------7-7-7-7-7-7-7-7-----------------|
D|-7-7-7-7-7-7-7-7-7-7-7-7--4-4-4-4-4-4-4-4--7-7-7-7-7-7-7-7-----------------|
A|-7-7-7-7-7-7-7-7-7-7-7-7--4-4-4-4-4-4-4-4--5-5-5-5-5-5-5-5-----------------|
E|-5-5-5-5-5-5-5-5-5-5-5-5--2-2-2-2-2-2-2-2----------------------------------|

End on:

D|-7-|
A|-7-|
E|-5-|

For any questions, feel free to email me at robneedsaholiday@hotmail.com

************************************

| /   slide up
| \   slide down
| h   hammer-on
| p   pull-off
| ~   vibrato
| +   harmonic
| x   Mute note
| b   Bend
| pb  Pre-bend
| br  Bend release
| pbr Pre-bend release
| brb Bend release bend

************************************
Suggest correction
Give kudos to tab author, rate the tab!
1 2 3 4 5
comments
print report bad tab
guest
You may want to rate the tab now too:
select rating
Wanna post a correction for this tab? Suggest correction