Oops, an error
Loading. Please wait.

Salt Pepa And Spinderella tab

version 1
version 1

Whole song

3,494 views 3 this week
3 commentsread comments
1 2 3 4 5
x 3
add to favorites
×
Save as Personal and add changes to this tab that will be seen only by you. Learn more ›
×
You can save this tab as Personal to edit and correct it or add notes. All changes will be seen only by you. Learn more »
launch autoscroll
font size
0
reset
how to read this tab
guitar tuner
edit
Autoscroll
slow
fast
+/-
esc
set tempo
stop
Author
Difficulty
----------------------------------------------------------------------------
                             Salt Pepa And Spinderella - Johnny Foreigner
Tabbed by: Gerbilman
Email:robinjoynson@hotmail.co.uk

Tuning: Standard

Intro (On Junior's Casio)

e|-------------------------------------------------------------------------|
B|-------------------------------------------------------------------------|
G|-------------------------------------------------------------------------|
D|-------------------------------------------------------------------------|
A|-------------------------------------------------------------------------|
E|--3333333333333333-77777777-55555555--x2---------------------------------|

Verse (On Junior's Casio)

e|-------------------------------------------------------------------------|
B|-------------------------------------------------------------------------|
G|-------------------------------------------------------------------------|
D|-------------------------------------------------------------------------|
A|-------------------------------------------------------------------------|
E|--3333333333333333-77777777-55555555---x4--------------------------------|

(On Guitar 4th Time Round)

e|--7----5----2----5----7--------------------------------------------------|
B|-------------------------------------------------------------------------|
G|-------------------------------------------------------------------------|
D|-------------------------------------------------------------------------|
A|-------------------------------------------------------------------------|
E|-------------------------------------------------------------------------|

Chorus (Junior's Casio Again)

e|-------------------------------------------------------------------------|
B|-------------------------------------------------------------------------|
G|-------------------------------------------------------------------------|
D|-------------------------------------------------------------------------|
A|-------------------------------------------------------------------------|
E|--3333333333333333-77777777-55555555---x4--------------------------------|

(On Guitar 2nd Time Round)

e|----2----5----7----------------------------------------------------------|
B|-------------------------------------------------------------------------|
G|-------------------------------------------------------------------------|
D|-------------------------------------------------------------------------|
A|-------------------------------------------------------------------------|
E|-------------------------------------------------------------------------|

(On Guitar 4th Time Round)

e|--7----5----2----5----7--------------------------------------------------|
B|-------------------------------------------------------------------------|
G|-------------------------------------------------------------------------|
D|-------------------------------------------------------------------------|
A|-------------------------------------------------------------------------|
E|-------------------------------------------------------------------------|

Verse 2

Chorus

Bridge Part 1 (Casio again) - Alexei repeats complex guitar improvisation.

e|-------------------------------------------------------------------------|
B|-------------------------------------------------------------------------|
G|-------------------------------------------------------------------------|
D|-------------------------------------------------------------------------|
A|-------------------------------------------------------------------------|
E|--3333333333333333-77777777-55555555---x6--------------------------------|

Bridge Part 2 (On Guitar) - "Turn On The Real Drums!"

e|-------------------------------------------------------------------------|
B|-------------------------------------------------------------------------|
G|-------------------------------------------------------------------------|
D|--5555555555555555-99999999-77777777-------------------------------------|
A|--5555555555555555-99999999-77777777-------------------------------------|
E|--3333333333333333-77777777-55555555---x8--------------------------------|

End on G5

            
            
Suggest correction
Creating personal tab
Creating personal tab
You can edit any tab online and save it as your Personal.

You can edit, replace or remove any tab part or add personal notes – all changes will be seen only by you.

Personal tabs can be accessed anytime from any device, even offline.
Learn more »
Give kudos to tab author, rate the tab!
1 2 3 4 5
comments
print report bad tab
3 comments total.
0 reply
mattylaneguitar 133 Oct 15, 2009 01:23 PM

its lacking the only bits worth learning

0 reply
simonsalias 16 Feb 17, 2010 01:23 PM

It's not complex or improvised. It's something like...

Tuning = EADABC#

this
|----------------------------------------|
|----------------------------------------|
|---------------9p0-12-12/14-12----------|
|-5p0-7p0-7/9p0-----------------12-16-14-|
|----------------------------------------|
|----------------------------------------|
then this
|-------------------------------------|
|----------------------------14-12----|
|---------------9p0-12-12/14-------12-|
|-5p0-7p0-7/9p0-----------------------|
|-------------------------------------|
|-------------------------------------|

repeated over and over.

0 reply
simonsalias 16 Feb 18, 2010 12:04 AM

Missed an A on the 2nd bit. Should be between 4th and 3rd notes from the end. Sorry.

guest
You may want to rate the tab now too:
select rating
Wanna post a correction for this tab? Suggest correction