Oops, an error
Loading. Please wait.

Oh Marie Tab

version 1
version 1

Intro

Interactive

9,650 views 1 this week
no commentswrite comment
1 2 3 4 5
x 5
add to favorites
launch autoscroll
font size
0
reset
how to read this tab
guitar tuner
Autoscroll
slow
fast
+/-
esc
set tempo
stop
Help us to improve Ultimate-Guitar.com Take our survey!
×
Difficulty
novice
E--0-----------------------|
B-----1--0--------1--0-----|
G--------------0--------2--|
D--------------------------|
A--------------------------|
E--------------------------|


E--0--------------------------|
B------1--0--------1----0-----|
G--------------0-----------2--|
D-----------------------------|
A-----------------------------|
E-----------------------------|

A--0--------------------------|
B-----1--0-----0---0------1---|
G----------------------2------|
D-----------------------------|
A-----------------------------|
E-----------------------------|

A-------------------------------|
B------------1----0---0--1---0--|
G----0---0--------------------2-|
D-------------------------------|
A-------------------------------|
E-------------------------------|


-0----------------------------------------|
---1-0-------------------0-0---0-1-0------|
--------0-0-2-2---2-2----------------2----|
------------------------------------------|
------------------------------------------|
------------------------------------------|

-0-----------------------------------------|
---1-0----------------------1-0---0-1-0----|
--------0-0-2-2---2-2-2-----------------2--|
-------------------------------------------|
-------------------------------------------|
-------------------------------------------|
Suggest correction
comments
print report bad tab
guest
You may want to rate the tab now too:
select rating
Wanna post a correction for this tab? Suggest correction