Oops, an error
Loading. Please wait.

Celtic Country tab

7,791 views 1 this week
no commentswrite comment
1 2 3 4 5
2 more votes to show rating
add to favorites
×
Save as Personal and add changes to this tab that will be seen only by you. Learn more ›
×
You can save this tab as Personal to edit and correct it or add notes. All changes will be seen only by you. Learn more »
launch autoscroll
font size
0
reset
how to read this tab
guitar tuner
edit
Autoscroll
slow
fast
+/-
esc
set tempo
stop
Author
Difficulty
www.johnnyhiland.com
                                 CELTIC COUNTRY
                          As recorded by Johnny Hiland

Transcribed by heathb@chariot.net.au

Gtr I (E A D G B E) - 'Untitled'

   4/4
    Gtr I
                                PM
    E E E E E E E E   E E E E E E E E   E E E E E E E E E E E E E
||------------------|-----------------|----------------------------|
||o-----------------|-----------------|-------------------2-3------|
||------------------|-----------------|---------------2-4-----4-2--|
||------0---5---4p0-|---0-----0---2p0-|---0-----0-2h4--------------|
||o-4S5---5---5-----|-4---4h5---0-----|-4---4S5--------------------|
||------------------|-----------------|----------------------------|


  E E E E E E E E   E E E E E E E E E E E E E E E E E E E E E  4x
|-----------------|--------------------------------------------||----|
|-----------------|-----------------------2-3-2---------------o||----|
|-----------------|-------------------2h4-------4-2p0----------||----|
|-----0---5---4p0-|---0-----0---0-2-4-----------------4-2---0--||----|
|-4S5---5---5-----|-4---4h5---5---------------------------4---o||----|
|-----------------|--------------------------------------------||----|

SOLO 1


  E E E E E E E E E E E E E E E E E
|-1S3-1-----------------------------|
|-------3-2-1---1-----0-------------|
|-------------3---3h4---4p3-0-2-2-0-|
|-----------------------------------|
|-----------------------------------|
|-----------------------------------|


  E E E E E E E E E E E    E    E     E
|-----------------------------|-------------|
|-----------------------------|-------------|
|---2-0---0-------------------|-------------|
|-3-----3---3-2-0---0------0--|-5b7---5pb7r=|
|-----------------3---2b3-----|-------------|
|-----------------------------|-------------|


                                      ~
  E E E E E E E E E E E E E E E E E E E    E E E E E E E E E E E E E E
|----------------------------------------|-----------------------------|
|----------------------------------------|---8---8-----6---6-6---6-6---|
|---------------------------------7---7--|---7---7---7-7---7-7---7-7-7-|
|-3-4-------------0---0-----7-9-7---9----|-9---9---9-----9-----9-------|
|-----5---3-5-3S5---5---7S9--------------|-----------------------------|
|-------5--------------------------------|-----------------------------|


                ~
  E   E E E E E E
|------------------|
|-----5-3----------|
|-7\--5-3h4--------|
|-----------5-3-5--|
|------------------|
|------------------|


  E E E E E  E E E E E    E E E  E E E  E E E E E E E E E E E
|-----------------------------------------------------------------|
|-------------------------7-8-9-10-9-8----7h8p7---7---------------|
|-0-0--------------7-9b10--------------10-------9---9-8-7---------|
|-----3h4------7-9----------------------------------------7-9b10--|
|---------5S=9----------------------------------------------------|
|-----------------------------------------------------------------|


  E E E E E
|-----------|----|
|-----------|----|
|-------0---|----|
|-7-6-5---4-|----|
|-----------|----|
|-----------|----|


CHORUS


   E  E  E  E E       E E    E
|-10----10-10------------------|
|-10h12-10-12------------------|
|-------------9pb10r====9b11-9-|
|--------------------12--------|
|------------------------------|
|------------------------------|


   E  E E  E  E E  E E  E E  E  E  E E  E    E    E  E E E    E E    E
|-----------------------------------------|-------7---------------------|
|---------------9-10-9--------------------|-10b12---10-7----------------|
|-------9-11-12--------12-9-11h12p11-9----|--------------9b11r7-9b11-7--|
|----11--------------------------------12-|-----------------------------|
|-12--------------------------------------|-----------------------------|
|-----------------------------------------|-----------------------------|


  E E E E E E E E E E  E    E  E  E  E E      E E    E
|------------------------|-10----10-10-----------------|
|---------------7-8-9-10-|-10h12-10-12-----------------|
|-----------7-9----------|-------------9pb10r===9b10-9-|
|-------7-9--------------|-------------------12--------|
|-7-8-9------------------|-----------------------------|
|------------------------|-----------------------------|


   E  E E  E  E E  E E  E E  E  E  E E
|--------------------------------------|
|---------------9-10-9-----------------|
|-------9-11-12--------12-9-11h12p11-9-|
|----11--------------------------------|
|-12-----------------------------------|
|--------------------------------------|


                                                                ~
   E    E    E  E E E    E E    E E E E E E E E E E E E   E E E E
|----|-------7------------------------------------------|------------|
|----|-10b12---10-7-----------------------------7-8-7---|------------|
|----|--------------9b11r7-9b11-7-----------7-9-------9-|-7-6-9-7----|
|-12-|----------------------------------7-9-------------|------------|
|----|----------------------------7-8-9-----------------|------------|
|----|--------------------------------------------------|------------|


   4/4
                                PM
    E E E E E E E E   E E E E E E E E   E E E E E E E E E E E E E
||------------------|-----------------|----------------------------|
||o-----------------|-----------------|-------------------2-3------|
||------------------|-----------------|---------------2-4-----4-2--|
||------0---5---4p0-|---0-----0---2p0-|---0-----0-2h4--------------|
||o-4S5---5---5-----|-4---4h5---0-----|-4---4S5--------------------|
||------------------|-----------------|----------------------------|


  E E E E E E E E   E E E E E E E E E E E E E E E E E E E E E
|-----------------|--------------------------------------------||----|
|-----------------|-----------------------2-3-2---------------o||----|
|-----------------|-------------------2h4-------4-2p0----------||----|
|-----0---5---4p0-|---0-----0---0-2-4-----------------4-2---0--||----|
|-4S5---5---5-----|-4---4h5---5---------------------------4---o||----|
|-----------------|--------------------------------------------||----|

SOLO 2


  E E E E E E E E E E E E E E E E E E E E E E E E E E E E E E E E E E E
|-0h2---0---------------------------------------------------------------|
|-----3---1p0-----------------------------------------------------------|
|-------------2-1-0-----0-------------------------------------------7-9-|
|-------------------3h4---4p3p0-2-2-0---2-0---0-----0-0-0-------7-9-----|
|-------------------------------------3-----3---3S5-------7S8-9---------|
|-----------------------------------------------------------------------|


  E E E  E E E E  E E E E E E E E E E  E E E E E E E E E E E E
|----------7-8-7--------------------------------------------------|
|-7-8-9-10-------10-9-8---7h8p7-----8--7h8p7---7------------------|
|-----------------------9-------9-7----------9---9-8-7---7---7----|
|------------------------------------------------------9---8------|
|-----------------------------------------------------------------|
|-----------------------------------------------------------------|


   E     E E E E E E E E E E E E E E E E E  E  E  E  E  E  E     E  E  E  E     E  E  E  E    E  E  E  E     E
|------------------------------------------------------10-------10-------------10-------------10----------------|
|-10----10---------7-------------------7---------10-12----13b15----13-10-13b15----13-10-13b15----13-10-------10-|
|--9b11--9-7h9p7---7---------7---------7-9h10-11-------------------------------------------------------12b14----|
|----------------9---9-8-7---7-----7-9--------------------------------------------------------------------------|
|--------------------------9---8h9------------------------------------------------------------------------------|
|---------------------------------------------------------------------------------------------------------------|


                                                                          ~~
   E  E     E  E  E  E     E  E  E  E  E  E  E  E  E  E  E  E  E  E E  E  E  E E E E E E EE E E E
|-10-------10----------------10-------10-------------10--------------------------------------------|
|----13b15----13-10-------10----11h12----12-11-10------------------------------8---6---6-6-------5-|
|-------------------12b14-------------------------12----12-11-10----9----------7---7---7-7S5-3---5-|
|----------------------------------------------------------------12---10-12--9---9---9---------5---|
|--------------------------------------------------------------------------------------------------|
|--------------------------------------------------------------------------------------------------|


                                    ~
  E E E E E E E E E E E E E E E E E E  E E E E E E E E E E E E E E E E
|---------3------------------------------------------------------------|
|---3-------6-3---------5------------------------------------1p0---0---|
|---3h4---------6-5-3---5---3h4------------------------0-1-2-----2---2-|
|-5-----5-------------5---5-----5-3-5--3S4-0-0-0-0-3-4-----------------|
|----------------------------------------------------------------------|
|----------------------------------------------------------------------|


  E E E E E E E E E E E E E E E E E E E E E E E E E E E E E E E E E E E
|-1h2---0-----------------------------1h3-1-----------------------------|
|-----3---1-0-------------------------------3-2-1---1-----0-------------|
|-------------2-1-0-----0-----------0-------------3---3h4---3p2p0-2-2-0-|
|-------------------3S4---4p3p0-2-0-------------------------------------|
|-----------------------------------------------------------------------|
|-----------------------------------------------------------------------|


  E E E E E E E E E E E E E E E E E E E E E E E E E E E E E E E E E E E
|-------------------------------------------------------2-5-3-----------|
|---------------------------------------------------2-5-------5-4-3---5-|
|---2p0---0-------------------------------2---2-4-5-----------------5-5-|
|-3-----3---3-2-0---0-------0-------2-2-4---4---------------------------|
|-----------------3---2-0-2---2h3h4-------------------------------------|
|-----------------------------------------------------------------------|


                ~
  E E E E E E E E     E E    E E E E E    E E E E    E E E E     E E E E E
|-------------------|---------------------7----------7---------------------|
|---7---5-----------|-6------6---6----------5-6--------5-6---------5-7h8p7-|
|---7---5h6---------|---5b6----5---5S7b9--------7b9r=======7pb9r=7---------|
|-7---7-----7-5-7---|------------------------------------------------------|
|-------------------|------------------------------------------------------|
|-------------------|------------------------------------------------------|


  E E E E E E E E E E E E E E E E E E E E E E E E E E E E  E
|---------5-7-8-7-5----------------------------------------------|
|-5-7-8-9-----------9-8-5-7h8p7-5-------5---5--------------------|
|---------------------------------8-7---5---5--------------------|
|-------------------------------------7---7---7-6-0-3h4----------|
|-------------------------------------------------------5-<5>----|
|----------------------------------------------------------------|

CHORUS

   E  E  E  E E       E E    E
|-10----10-10------------------|
|-10h12-10-12------------------|
|-------------9pb10r====9b11-9-|
|--------------------12--------|
|------------------------------|
|------------------------------|


   E  E E  E  E E  E E  E E  E  E  E E  E    E    E  E E E    E E    E
|-----------------------------------------|-------7---------------------|
|---------------9-10-9--------------------|-10b12---10-7----------------|
|-------9-11-12--------12-9-11h12p11-9----|--------------9b11r7-9b11-7--|
|----11--------------------------------12-|-----------------------------|
|-12--------------------------------------|-----------------------------|
|-----------------------------------------|-----------------------------|


  E E E E E E E E E E  E    E  E  E  E E      E E    E
|------------------------|-10----10-10-----------------|
|---------------7-8-9-10-|-10h12-10-12-----------------|
|-----------7-9----------|-------------9pb10r===9b10-9-|
|-------7-9--------------|-------------------12--------|
|-7-8-9------------------|-----------------------------|
|------------------------|-----------------------------|


   E  E E  E  E E  E E  E E  E  E  E E
|--------------------------------------|
|---------------9-10-9-----------------|
|-------9-11-12--------12-9-11h12p11-9-|
|----11--------------------------------|
|-12-----------------------------------|
|--------------------------------------|


   E    E    E  E E E    E E    E E E E E E E E E E E E   E E E E
|----|-------7------------------------------------------|------------|
|----|-10b12---10-7-----------------------------7-8-7---|------------|
|----|--------------9b11r7-9b11-7-----------7-9-------9-|-7-6-9-7----|
|-12-|----------------------------------7-9-------------|------------|
|----|----------------------------7-8-9-----------------|------------|
|----|--------------------------------------------------|------------|


   4/4
                                PM
    E E E E E E E E   E E E E E E E E   E E E E E E E E E E E E E
||------------------|-----------------|----------------------------|
||o-----------------|-----------------|-------------------2-3------|
||------------------|-----------------|---------------2-4-----4-2--|
||------0---5---4p0-|---0-----0---2p0-|---0-----0-2h4--------------|
||o-4S5---5---5-----|-4---4h5---0-----|-4---4S5--------------------|
||------------------|-----------------|----------------------------|


  E E E E E E E E   E E E E E E E E E E E E E E E E E E E E E
|-----------------|--------------------------------------------||----|
|-----------------|-----------------------2-3-2---------------o||----|
|-----------------|-------------------2h4-------4-2p0----------||----|
|-----0---5---4p0-|---0-----0---0-2-4-----------------4-2---0--||----|
|-4S5---5---5-----|-4---4h5---5---------------------------4---o||----|
|-----------------|--------------------------------------------||----|


SOLO 3

            ~~                    ~~
   E        E     E      E  E  E  E   E   E  E  E  E  E  E  E  E  E  E  E  E  E  E  E  E 
E  E  E  E  E  E  E
|----------------------------------------13-12h13p12p10----12-10----------------------------------------------|
|-12b12.5r=10----13pb15r11-13----11--13-----------------13-------13-12-11----10h11p10----10-13-10-11-10----11-|
|-12b12.5r=10-----------------12------------------------------------------12----------12----------------12----|
|-------------------------------------------------------------------------------------------------------------|
|-------------------------------------------------------------------------------------------------------------|
|-------------------------------------------------------------------------------------------------------------|


                    ~
   E  E  E  E  E  E E
|----------------------|
|-10-------------------|
|----12-11-10----10-9--|
|-------------12-------|
|----------------------|
|----------------------|


   E     E  E  E  E       E      E  E  E   E  E  E  E  E  E  E  E  E  E  E  E
|-------10----------------------10--------------13----13------------------------|--|
|----------10-13-------------------10-13--13S15----15----15S13-11----13----11---|--|
|-12b14----------12pb14r(12)b14-----------------------------------12----12------|--|
|-------------------------------------------------------------------------------|--|
|-------------------------------------------------------------------------------|--|
|-------------------------------------------------------------------------------|--|


                                                                       PM--|     PM    PM
   E  E  E  E  E  E  E  E  E  E  E  E  E  E  E  E  E  E E     E  E     E E E E E E E E E EE
|-12p10-12-12p10----12p10----------------------------------------------------8p5---6p5---8p5-|
|----------------13-------13-12p11----11p10--------------------------------6-----6-----6-----|
|----------------------------------12-------12-11-10----9b10r============5-------------------|
|----------------------------------------------------12------10--------7---------------------|
|---------------------------------------------------------------10\--------------------------|
|--------------------------------------------------------------------------------------------|


  PM    PM
  E E E E
|---6p5---|
|-6-----6-|
|---------|
|---------|
|---------|
|---------|


     PM|   PM|   PM
   E E E E E E E E E E E E E E E E E E E  E E  E  E  E  E  E  E  E  E  E
|-10-----8-----6---5h6p5---5----------------8-10s12-13-12-13-------17p15-|
|------6-----6-----------8---8-7-6---6-8S10------------------11S13-------|
|----5-----5-----7-----------------7-------------------------------------|
|------------------------------------------------------------------------|
|------------------------------------------------------------------------|
|------------------------------------------------------------------------|


                                             ~~
   E  E  E  E  E  E  E  E  E  E  E  E  E  E  E
|----15----13----12h13p12------------------------|
|-11----10----11----------15-14-13----12---------|
|----------------------------------15----14-15---|
|------------------------------------------------|
|------------------------------------------------|
|------------------------------------------------|


   E  E  E  E  E  E  E  E     E  E  E  E     E
|-------------------------------------------------|
|-10h11p10----10-------------10-10-10-------10----|
|----------12----12-10-12b14----------12b14-------|
|-------------------------------------------------|
|-------------------------------------------------|
|-------------------------------------------------|


                                             ~~                                          
                          ~~~
   E     E  E     E  E       E   E  E  E  E  E   E     E  E     E  E      E  E  E     E  E E  E  E  E  E  E  E  E  E
|-------13-------13-----------------------------------15-------15---------------------------------------------------------|
|-13b15----13b15----13pb15r(13)p11----13----11--15b17----15b17----15pb17r===15-15----12h14-14-------15----16----17-17-----|
|----------------------------------12----12------------------------------14----14b15r14-------15S16----16----17----18\----|
|-------------------------------------------------------------------------------------------------------------------------|
|-------------------------------------------------------------------------------------------------------------------------|
|-------------------------------------------------------------------------------------------------------------------------|


   4/4
                                PM
    E E E E E E E E   E E E E E E E E   E E E E E E E E E E E E E
||------------------|-----------------|----------------------------|
||o-----------------|-----------------|-------------------2-3------|
||------------------|-----------------|---------------2-4-----4-2--|
||------0---5---4p0-|---0-----0---2p0-|---0-----0-2h4--------------|
||o-4S5---5---5-----|-4---4h5---0-----|-4---4S5--------------------|
||------------------|-----------------|----------------------------|


  E E E E E E E E   E E E E E E E E E E E E E E E E E E E E E  4x
|-----------------|--------------------------------------------||----|
|-----------------|-----------------------2-3-2---------------o||----|
|-----------------|-------------------2h4-------4-2p0----------||----|
|-----0---5---4p0-|---0-----0---0-2-4-----------------4-2---0--||----|
|-4S5---5---5-----|-4---4h5---5---------------------------4---o||----|
|-----------------|--------------------------------------------||----|


   E  E  E  E E       E E    E
|-10----10-10------------------|
|-10h12-10-12------------------|
|-------------9pb10r====9b11-9-|
|--------------------12--------|
|------------------------------|
|------------------------------|


   E  E E  E  E E  E E  E E  E  E  E E  E    E    E  E E E    E E    E
|-----------------------------------------|-------7---------------------|
|---------------9-10-9--------------------|-10b12---10-7----------------|
|-------9-11-12--------12-9-11h12p11-9----|--------------9b11r7-9b11-7--|
|----11--------------------------------12-|-----------------------------|
|-12--------------------------------------|-----------------------------|
|-----------------------------------------|-----------------------------|


  E E E E E E E E E E  E    E  E  E  E E      E E    E
|------------------------|-10----10-10-----------------|
|---------------7-8-9-10-|-10h12-10-12-----------------|
|-----------7-9----------|-------------9pb10r===9b11-9-|
|-------7-9--------------|-------------------12--------|
|-7-8-9------------------|-----------------------------|
|------------------------|-----------------------------|


   E  E E  E  E E  E E  E E  E  E  E E
|--------------------------------------|
|---------------9-10-9-----------------|
|-------9-11-12--------12-9-11h12p11-9-|
|----11--------------------------------|
|-12-----------------------------------|
|--------------------------------------|


                                ~
   E    E    E  E E E    E E    E              E  E
|----|-------7-------------------------------|----------|
|----|-10b12---10-7--------------------------|----------|
|----|--------------9b11r7-9b11-7------------|-7--7\----|
|-12-|---------------------------------------|-7--7\----|
|----|---------------------------------------|-5--5\----|
|----|---------------------------------------|----------|


Duration Legend
---------------
W - whole; H - half; Q - quarter; E - 8th; S - 16th; T - 32nd; X - 64th; a - acciaccatura
+ - note tied to previous; . - note dotted; .. - note double dotted
Uncapitalized letters represent notes that are staccato (1/2 duration)
Irregular groupings are notated above the duration line
Duration letters will always appear directly above the note/fret number it represents the
duration for.  Duration letters with no fret number below them represent rests.  Multi-
bar rests are notated in the form Wxn, where n is the number of bars to rest for.  Low
melody durations appear below the staff

Tablature Legend
----------------
 h   - hammer-on
 p   - pull-off
 b   - bend
 pb  - pre-bend
 r   - bend release (if no number after the r, then release immediately)
 /\  - slide into or out of (from/to "nowhere")
 s   - legato slide
 S   - shift slide
  - natural harmonic
[n]  - artificial harmonic
n(n) - tapped harmonic
 ~   - vibrato
 tr  - trill
 T   - tap
 TP  - trem. picking
 PM  - palm muting
\n/  - tremolo bar dip; n = amount to dip
 \n  - tremolo bar down
 n/  - tremolo bar up
/n\  - tremolo bar inverted dip
 =   - hold bend; also acts as connecting device for hammers/pulls
 <>  - volume swell (louder/softer)
 x   - on rhythm slash represents muted slash
 o   - on rhythm slash represents single note slash

Misc Legend
-----------
 |  - bar
||  - double bar
||o - repeat start
o|| - repeat end
*|  - double bar (ending)
 :  - bar (freetime)
 $  - Segno
 &  - Coda
Tempo markers -  = BPM(8/16=s8/s16), where s8 = swing 8ths, s16 = swing 16ths
Suggest correction
Creating personal tab
Creating personal tab
You can edit any tab online and save it as your Personal.

You can edit, replace or remove any tab part or add personal notes – all changes will be seen only by you.

Personal tabs can be accessed anytime from any device, even offline.
Learn more »
Give kudos to tab author, rate the tab!
1 2 3 4 5
comments
print report bad tab
guest
You may want to rate the tab now too:
select rating
Wanna post a correction for this tab? Suggest correction