Oops, an error
Loading. Please wait.

Church Hymn For The Condemned tab

version 3
version 3

Whole song

304 views 1 this week
no commentswrite comment
1 2 3 4 5
2 more votes to show rating
add to favorites
×
Save as Personal and add changes to this tab that will be seen only by you. Learn more ›
×
You can save this tab as Personal to edit and correct it or add notes. All changes will be seen only by you. Learn more »
launch autoscroll
font size
0
reset
how to read this tab
guitar tuner
edit
Autoscroll
slow
fast
+/-
esc
set tempo
stop
Author
Difficulty
No versions contained the little outro piece, or the trumpets so here yuh go

Intro/Verse
e---------------|
b---------------|
g-------------4-|
d-4---7---2---4-|
a-4---7---2---2-|
e-2---5---0-----|

Chorus
e----------------|
b----------------|
g-----9---11---7-|
d-7---9---11---7-|
a-7---7---9----5-|
e-5--------------|

Outro
e---------------|
b---------------|
g---------------|
d-4---7---7-6-4-|
a-4---7---7-6-4-|
e-2---5---5-4-2-|

Intro Trumpet
e|-|-2---0202---0202---0----0-||-0---0---|-|
B|-|---------------------2----||---2---2-|-|
G|-|--------------------------||---------|-|
D|-|--------------------------||---------|-|
A|-|--------------------------||---------|-|
E|-|--------------------------||---------|-|

Chorus Trumpet 
e|-|-5--7--9-7-5-|-5--7--9-7-9--7-5-|-|
B|-|-------------|------------------|-|
G|-|-------------|------------------|-|
D|-|-------------|------------------|-|
A|-|-------------|------------------|-|
E|-|-------------|------------------|-|

Chorus 2 Trumpet 
e|-|-5--7--9-7-5-|-5--7--9-979-79-7-5-|-|
B|-|-------------|--------------------|-|
G|-|-------------|--------------------|-|
D|-|-------------|--------------------|-|
A|-|-------------|--------------------|-|
E|-|-------------|--------------------|-|

Outro Trumpet
e|-|------------------|-|
B|-|-5757--5--7--5--7-|-|
G|-|------------------|-|
D|-|------------------|-|
A|-|------------------|-|
E|-|------------------|-|

Verse
F#m                A                      E             Bm
   Life's like the feeling when you had a point, but forgot it
F#m                 A                   E      Bm
   Had a ticket for my train of thought, but I lost it
F#m               A            E              Bm
   God gave me instructions on how to live my life
F#m               A                   E                     Bm
   But I couldn’t read his handwriting so I burnt them last night

Chorus 
A              E               F#m          D
But I take the beauty of chaos over ugly perfection
     A                     E                     F#m         E
I've woken up on the wrong side of the bed every day since 1987
A                  E                  F#m             D
 I can feel myself slipping away from any chance of redemption
    A                                E                   F#m                D
But that's okay 'cause if it's where Falwell goes then I don't even want any part of heaven

Verse 2
F#m         A             E                 Bm
   A guy on TV offered to save my soul toll free
    F#m                      A                  E                    Bm
But that would have required getting up off the couch so I was too lazy
F#m          A                     E                     Bm
   Instead I wait in the bushes outside of a cop's house holding a twelve gauge
F#m          A             E                    Bm
   God isn't dead but I'll get that Bastard someday!

Chorus
A                        E             F#m               D
And I take the beauty of my chaos over any one else's perfection
     A                           E                     F#m         D
I've still woken up on the wrong side of the bed every day since 1987
A                     E                       F#m                     D
 Nothing scares me as much as the fact that I don't give a shit for redemption
    A                                E                    F#m                 D
But that's okay 'cause if it's where Limbaugh goes then I don't even want any part of heaven
F#m A G# F#m
            Hail Satan!

            
            
Suggest correction
Creating personal tab
Creating personal tab
You can edit any tab online and save it as your Personal.

You can edit, replace or remove any tab part or add personal notes – all changes will be seen only by you.

Personal tabs can be accessed anytime from any device, even offline.
Learn more »
Give kudos to tab author, rate the tab!
1 2 3 4 5
comments
print report bad tab
guest
You may want to rate the tab now too:
select rating
Wanna post a correction for this tab? Suggest correction