Oops, an error
Loading. Please wait.

New Mexico Song tab

version 1
version 1

Whole song

7,505 views 6 this week
no commentswrite comment
1 2 3 4 5
1 last vote to show rating
add to favorites
×
Save as Personal and add changes to this tab that will be seen only by you. Learn more ›
×
You can save this tab as Personal to edit and correct it or add notes. All changes will be seen only by you. Learn more »
launch autoscroll
font size
0
reset
how to read this tab
guitar tuner
edit
Autoscroll
slow
fast
+/-
esc
set tempo
stop
Author
Difficulty
Johnny Hobo And The Freight Trains
The New Mexico Song
03/03/05 Live at the office

Intro
e------------------------------|
b------------------------------|
g-5----------------------------|
d-5-7x's-5------7------3-------|
a-3------5-7x's-7-7x's-3-9x's--|
e--------3------5------1-------|
(he does variations within the intro but its easy to hear


Verse
"as he lights an american spirit..."
e----------------------|
b----------------------|
g-5~-----5-5-5---------|
d-5~-----5-5-5-5-------|
a-3~-----3-3-3-5-------|
e--------------3-------|
~ = hold note
e------------------------------|
b------------------------------|
g-5----------------------------|
d-5-7x's-5------7------3-------|
a-3------5-7x's-7-7x's-3-9x's--|
e--------3------5------1-------|
like intro but played faster

Like all the Johnny Hobo songs this one shares similar chord progression, extreamly easy 
play and is a very fun song to play with your friends.

If you have any questions or corrections or even need Johnny Hobo mp3's please email me 
at jesusthebrokebackcowboy@yahoo.com

            
            
Suggest correction
Creating personal tab
Creating personal tab
You can edit any tab online and save it as your Personal.

You can edit, replace or remove any tab part or add personal notes – all changes will be seen only by you.

Personal tabs can be accessed anytime from any device, even offline.
Learn more »
Give kudos to tab author, rate the tab!
1 2 3 4 5
comments
print report bad tab
guest
You may want to rate the tab now too:
select rating
Wanna post a correction for this tab? Suggest correction