Oops, an error
Loading. Please wait.

Shakin All Over tab

version 1
version 1

Whole song

Interactive

27,578 views 3 this week
3 commentsread comments
1 2 3 4 5
1 last vote to show rating
add to favorites
×
Save as Personal and add changes to this tab that will be seen only by you. Learn more ›
×
You can save this tab as Personal to edit and correct it or add notes. All changes will be seen only by you. Learn more »
launch autoscroll
font size
0
reset
how to read this tab
guitar tuner
edit
Autoscroll
slow
fast
+/-
esc
set tempo
stop
Author
Difficulty
hey
 i have not been playing guitar long so the fact i doing a tab is sorta wrong, well
a big fan ofthis songand cant find atab for it anywhere, i sorta sussed out the intro so
is summitto work on


intro

E-3p0-------------|-3p0-------------|
B-----3-1---------|-----3-1---------|
G--------2-0------|--------2-0------|
D-----------2-0-2-|-----------2-0-2-|
A-----------------|-----------------|
E-----------------|-----------------|


E-3--3--3---------|--0--0--0--------|
B-1--1--1---------|--3--3--3--------|
G-2--2--2---------|--2--2--2--------|
D-----------------|--2--2--2--------|
A-----------------|--0--0--0--------|
E-----------------|-----------------|


E-12--b12--12-----|
B-11--b11--11-----|
G-12--b12--12-----|
D-----------------|
A-----------------|
E-----------------|


it repeats the intro a couple times and this chorus comes back and then the solo, don't
ask me to do that!!!!
let me know what you think of the tab and if you have any modifications email me on
warrenforever@hotmail.com
Suggest correction
Creating personal tab
Creating personal tab
You can edit any tab online and save it as your Personal.

You can edit, replace or remove any tab part or add personal notes – all changes will be seen only by you.

Personal tabs can be accessed anytime from any device, even offline.
Learn more »
Give kudos to tab author, rate the tab!
1 2 3 4 5
comments
print report bad tab
3 comments total.
0 reply
guitarman599 10 Apr 14, 2007 05:30 AM

E-3p0-------------|-3p0-------------|
B-----3-0---------|-----3-0---------|
G--------2-0------|--------2-0------|
D-----------2-0-2-|-----------2-0-2-|
A-----------------|-----------------|
E-----------------|-----------------|
its an open string on the B

0 reply
Panama1958 88 Nov 18, 2008 04:42 AM

...and they're all pull offs

0 reply
softbumcheese 41 Aug 12, 2013 11:31 AM

what on earth kind of tuning are you in if this sounds good

guest
You may want to rate the tab now too:
select rating
Wanna post a correction for this tab? Suggest correction