Oops, an error
Loading. Please wait.

Empty Bird Cage Bass Tab

13 views 1 this week
no commentswrite comment
1 2 3 4 5
3 more votes to show rating
add to favorites
launch autoscroll
font size
0
reset
guitar tuner
Autoscroll
slow
fast
+/-
esc
set tempo
stop
Help us to improve Ultimate-Guitar.com Take our survey!
×
Author
Difficulty
novice
Tabbed by: 6METAL6BASSIST6
E-mail: petergriffinav@gmail.com

Tuning: EADG

G|------------------------------------------------------------------------|
D|------------------------------------------------------------------------|
A|------------------------------------------------------------------------|
E|------------------------------------------------------------------------|

G|------------------------------------------------------------------------|
D|------------10----------------10----------------10----------------------|
A|8-----------------8-----------------8-----------------8-----------8-----|
E|------------------------------------------------------------------------|

G|------------------------------------------------------------------------|
D|8-----------8-----------------------------------10----------------10----|
A|------------------6-----------6-----8-----------------8-----------------|
E|------------------------------------------------------------------------|

0:20

G|------------------------------------------------------------------------|
D|------------------------------------------------10----------------10----|
A|9-----------9-----9-----------9-----8-----------------8-----------------|
E|------------------------------------------------------------------------|

G|------------------------------------------------------------------------|
D|------------------6-----------5-----------------10----------------10----|
A|6-----------6-----------------------8-----------------8-----------------|
E|------------------------------------------------------------------------|

0:33

G|------------------------------------------------------------------------|
D|------------10----------------10----------------10----------------10----|
A|8-----------------8-----------------8-----------------8-----------------|
E|------------------------------------------------------------------------|

G|------------------------------------------------------------------------|
D|8-----------8-----------------------------------10----------------10----|
A|------------------6-----------6-----8-----------------8-----------------|
E|------------------------------------------------------------------------|

0:45

G|------------------------------------------------------------------------|
D|------------11----------------------------------10----------------------|
A|9-----------------9-----------9-----8-----------------8-----------8-----|
E|------------------------------------------------------------------------|

G|------------------------------------------------------------------------|
D|------------------6-----------5-----------------10----------------------|
A|6-----------6-----------------------8-----------------8-----------8-----|
E|------------------------------------------------------------------------|

0:57

G|------------------------------------------------------------------------|
D|------------------------------------------------------------------------|
A|------------------------------------------------------------------------|
E|------------------------------------------------------------------------|

G|------------------------------------------------------------------------|
D|------------------------------------------------------------------------|
A|------------------------------------------------------------------------|
E|------------------------------------------------------------------------|

1:10

G|------------------------------------------------------------------------|
D|------------11----------------------------------10----------------------|
A|9-----------------9-----------9-----8-----------------8-----------8-----|
E|------------------------------------------------------------------------|

G|------------------------------------------------------------------------|
D|------------------6-----------5-----------------10----------------10----|
A|6-----------6-----------------------8-----------------8-----------------|
E|------------------------------------------------------------------------|

1:23

G|------------------------------------------------------------------------|
D|------------10----------------10----------------10----------------10----|
A|8-----------------8-----------------8-----------------8-----------------|
E|------------------------------------------------------------------------|

G|------------------------------------------------------------------------|
D|8-----------8-----------------------------------10----------------10----|
A|------------------6-----------6-----8-----------------8-----------------|
E|------------------------------------------------------------------------|

1:35

G|------------------------------------------------------------------------|
D|------------11----------------11----------------10----------------10----|
A|9-----------------9-----------------8-----------------8-----------------|
E|------------------------------------------------------------------------|

G|------------------------------------------------------------------------|
D|------------------6-----------5-----------------10----------------10----|
A|6-----------6-----------------------8-----------------8-----------------|
E|------------------------------------------------------------------------|

G|------------------------------------------------------------------------|
D|------------10----------------10----------------10----------------10----|
A|8-----------------8-----------------8-----------------8-----------------|
E|------------------------------------------------------------------------|

1:53

G|------------------------------------------------------------------------|
D|------------10----------------10----------------10----------------------|
A|8-----------------8-----------------8-----------------8-----------8-----|
E|------------------------------------------------------------------------|

G|------------------------------------------------------------------------|
D|8-----------8-----------------------------------10----------------10----|
A|------------------6-----------6-----8-----------------8-----------------|
E|------------------------------------------------------------------------|

2:05

G|------------------------------------------------------------------------|
D|------------11----------------11----------------10----------------------|
A|9-----------------9-----------------8-----------------8-----------8-----|
E|------------------------------------------------------------------------|

G|------------------------------------------------------------------------|
D|------------8-----------------10----------------10----------------10----|
A|6-----------------6-----------------8-----------------8-----------------|
E|------------------------------------------------------------------------|

2:18

G|------------------------------------------------------------------------|
D|------------10----------------10----------------10----------------10----|
A|8-----------------8-----------------8-----------------8-----------------|
E|------------------------------------------------------------------------|

G|------------------------------------------------------------------------|
D|------------10----------------10----------------10----------------------|
A|8-----------------8-----------------8-----------------8-----------------|
E|------------------------------------------------------------------------|
Suggest correction
Give kudos to tab author, rate the tab!
1 2 3 4 5
comments
print report bad tab
guest
You may want to rate the tab now too:
select rating
Wanna post a correction for this tab? Suggest correction