Oops, an error
Loading. Please wait.

Algo Tonto Chords

26 views 1 this week
no commentswrite comment
1 2 3 4 5
3 more votes to show rating
add to favorites
launch autoscroll
font size
0
reset
transpose
0
reset
simplify chords
display chords
guitar tuner
Autoscroll
slow
fast
+/-
esc
set tempo
stop
Help us to improve Ultimate-Guitar.com Take our survey!
×
INTRO: Am, D, Am, D7, G

|-----7-8-10-10-8-7h8p7--------10-8-7h8-|
|-8-8-------------------10--------------|
|---------------------------------------|
|---------------------------------------|
|---------------------------------------|
|---------------------------------------|

|---------------------------------7-10--|
|10-8-7h8p7--------7-8-------7-8--------|
|---------7--7-9-------7-9--------------|
|---------------------------------------|
|---------------------------------------|
|---------------------------------------|

|-8-7h8p7-------------------------------|
|---------8-----------------------------|
|-----------7---------------------------|
|-------------10-9-75-------------------|
|---------------------------------------|
|---------------------------------------|


  G
Las horas van pasando y yo sigo esperando
    Am          D        Am    D7
que tú vengas a mí.
    Am                         D7
Y luego cuando estás entre mis brazos y te miro
      G
nunca sé que decir

 G7
A veces se me ocurren muchas frases
                  C          Cm
pero temo que te rias de mi
  Am           D          Am           D7
y acabo por decirte tiernamente y simplemente
     G      C9
algo tonto


   G7
He buscado en diccionarios

las palabras que te digan
     C
algo más de amor

    A
mas nunca las encuentro
        A7
aunque busque muy adentro
       D      D7
de mi corazón


      G
Las horas van pasando y yo sigo esperando
    Am          D        Am    D7
que tú vengas a mí.
    Am                         D7
Y luego cuando estás entre mis brazos y te miro
      G
nunca sé que decir
  G7
A veces se me ocurren muchas frases
                  C          Cm
pero temo que te rias de mi
  Am           D          Am           D7
y acabo por decirte tiernamente y simplemente
     G      C9
algo tonto

  G    Eb
te amo
  G    Eb
te amo
  G    Eb
te amo
Suggest correction
Give kudos to tab author, rate the tab!
1 2 3 4 5
comments
print report bad tab
guest
You may want to rate the tab now too:
select rating
Wanna post a correction for this tab? Suggest correction