Oops, an error
Loading. Please wait.

Suicide Is Painless Tab

version 1
version 1

Interactive

14,158 views 150 this week
2 commentsread comments
1 2 3 4 5
1 last vote to show rating
add to favorites
launch autoscroll
font size
0
reset
how to read this tab
guitar tuner
Autoscroll
slow
fast
+/-
esc
set tempo
stop
Help us to improve Ultimate-Guitar.com Take our survey!
×
Author
Suicide Is Painless (the theme from M*A*S*H)
Each note is plucked on a word
Eash measure is one line of lyrics

E |-3--1--0--1--0--1--0-----|--0-----0-----0--------|--0-------------------|
B |----------------------3--|-----3-----3-----3--1--|-----3--1--3--1--3--1-|
G |-------------------------|-----------------------|----------------------|
D |-------------------------|-----------------------|----------------------|
A |-------------------------|-----------------------|----------------------|
E |-------------------------|-----------------------|----------------------|

E |----|-----------------------0--|-----------------------|----------------|
B |-0--|--3--1--0--1--0--1--3-----|--3--5--3--5--3--5--3--|--3--5--3--5--3-|
G |----|--------------------------|-----------------------|----------------|
D |----|--------------------------|-----------------------|----------------|
A |----|--------------------------|-----------------------|----------------|
E |----|--------------------------|-----------------------|----------------|

E |-------|--3--0--3--6--8--8--10-8--6--3--6----|
B |-5--3--|-------------------------------------|
G |-------|-------------------------------------|
D |-------|-------------------------------------|
A |-------|-------------------------------------|
E |-------|-------------------------------------|

E-Mail corrections at tsega@starband.net
Suggest correction
Give kudos to tab author, rate the tab!
1 2 3 4 5
comments
print report bad tab
2 comments total.
0 reply
Tomzork 30 Apr 21, 2007 01:48 PM

Sorry, change every 6 into a 5 and it's right.

0 reply
psychedelicRe 10 Nov 29, 2007 10:35 PM

the 3's and 5's on the b string should be moved to the high e string :)

guest
You may want to rate the tab now too:
select rating
Wanna post a correction for this tab? Suggest correction