Oops, an error
Loading. Please wait.

Life Is Sweet Tab

28 views 1 this week
no commentswrite comment
1 2 3 4 5
3 more votes to show rating
add to favorites
launch autoscroll
font size
0
reset
how to read this tab
guitar tuner
Autoscroll
slow
fast
+/-
esc
set tempo
stop
Help us to improve Ultimate-Guitar.com Take our survey!
×
Author
JOHNNY MARR - LIFE IS SWEET
____________________________________
____________________________________

[INTRO] 
  
e|-/12-12-12-12-12-12-12-12-12-12\--0-0-----2-0---0--3--------/12-12-12-12----12--11-11-11-11-11-11-|
b|-/12-12-12-12-12-12-12-12-12-12\--0---0-------3------2------/12-12-12-12----12--12-12-12-12-12-12-|
g|----------------------------------1--------------------0-0---------------12-----------------------|
d|----------------------------------2---------------------------------------------------------------|
a|----------------------------------2---------------------------------------------------------------|
e|----------------------------------0---------------------------------------------------------------|

[VERSE]
  
e|-0---------2-2--0--0-0--0-0-0-0--0-0--2-0--0---------2-2-2----0--0--------------------------|
b|-0-0-------3-3--2--2-2--2-2-2-2--2-2--4-2--0-0-------3-3-3----1--1---------1----------------|
g|-1---1-----2-2--2--2-2--2-2-2-2--2-2--4-2--1---1-----2-2-2--0-0--0---0-0-----0--4-4-4-4-4-4-|
d|-2-----2-0-0-0--2--2-2--2-2-2-2--2-2--4-2--2-----2-0-0-0-0----2--2-------2------4-4-4-4-4-4-|
a|-2--------------0--0-0--0-0-0-0--0-0--2-0--2------------------3--3-3------------------------|
e|-0-----------------------------------------0------------------------------------------------|

e|---------------2-2-2-0--0-0--0---------------0-0--------2-0---0--0-------------------0-----|
b|---------------3-3-3-2--2-2--2-2----2-2-4-2--0---0----------3----1--3-1--1-3-1-0-0-0---0-0-|
g|-1-1---1---1---2-2-2-2--2-2--2---2--2-2-4-2--1------1------------0-------------------------|
d|-----2---2---0-0-0-0-2--2-2--2---------------2--------0----------2-------------------------|
a|---------------------0--0-0--0---------------2-------------------3-------------------------|
e|---------------------------------------------0---------------------------------------------|


[CHORUS]

e|-4-4-4--x-4-7-5---5-----0-0-0-------0-0-0---------4-4-4----------------0--0-0--0-0----------------------|
b|-5-5-5--x-------7---7\--2-2-2--x-x--2-2-2---------5-5-5----------------2--2-2--2-2-/7-7-7-7-7-7-7~7~7~7~|
g|-6-6-6--x---------------2-2-2--x-x--2-2-2-1-2h4p2-6-6-6---7-----7------2--2-2--2-2-/8-8-8-8-8-8---------|
d|-6-6-6--x---------------2-2-2--x-x--2-2-2---------6-6-6-7---7-----7----2--2-2--2-2----------------------|
a|-4-4-4--x---------------0-0-0--x-x--0-0-0---------4-4-4-------5-----5--0--0-0--0-0----------------------|
e|--------------------------------------------------------------------------------------------------------|


[SOLO]

  Guitar 1
e|-0-0--------2---2------0---------7-5------------0-0------------2-2----------3-3----------0-0--2--2-2--|
b|-0---0-0-0--3-3---0-0--2-2-0-2-------5-7--7\----0---0-0-0------3---0-3-0----2---2-0-2-0--2-2--4--4-4--|
g|-1----------2----------2------------------------1--------------2------------2------------2-2--4--4-4--|
d|-2----------0----------2------------------------2--------------0------------2------------2-2--4--4-4--|
a|-2---------------------0------------------------2---------------------------0------------0-0--2--2-2--|
e|-0----------------------------------------------0-----------------------------------------------------|
 |                                                                                                      |
 |                                                                                                      |
 |Guitar 2                                                                                              |
e|------------------------------------------------------------------------------------------------------|
b|------------------------------------------------------------------------------------------------------|
g|-7/9--------11--12b----12--------------11-11\---7/9-9-9-9-9-9--7---7-7-7-7--6--6-6-6-6-6-6b-----------|
d|------------------------------------------------------------------------------------------------------|
a|------------------------------------------------------------------------------------------------------|
e|------------------------------------------------------------------------------------------------------|


  Guitar 1
e|-0--0----------2--2----0---------------------0-0-0---2-2-2-2-2-2----|
b|-0----0--0-0---3----0-------2---2-2-2-2-2----2-2-2---4-4-4-4-4-4----|
g|-1-------------2-----------------------------2-2-2---4-4-4-4-4-4----|
d|-2-------------0-----------------------------2-2-2---4-4-4-4-4-4----|
a|-2-------------------------------------------0-0-0---2-2-2-2-2-2----|
e|-0------------------------------------------------------------------|
 |                                                                    |
 |                                                                    |
 |Guitar 2                                                            |
e|--------------------------------------------------------------------|
b|--------------------------------------------------------------------|
g|-9--9-9-9-9--11--11/12-12b--12--12-12-12-12--14b--------------------|
d|--------------------------------------------------------------------|
a|--------------------------------------------------------------------|
e|--------------------------------------------------------------------|


[CHORUS]

e|-4-4-4--x-4/7-5--------0-0-0-------------4-4-4--5/7-5---5--0-0-0-0----------------------------|
b|-5-5-5--x-------7--7\--2-2-2--1-----0----5-5-5--------7----2-2-2-2--2/4-4-4-4-4-4-7~7~7~7~7~7~|
g|-6-6-6--x--------------2-2-2----0-----2--6-6-6-------------2-2-2-2--2/4-4-4-4-4-4-------------|
d|-6-6-6--x--------------2-2-2------2------6-6-6-------------2-2-2-2----------------------------|
a|-4-4-4--x--------------0-0-0-------------4-4-4-------------0-0-0-0----------------------------|
e|----------------------------------------------------------------------------------------------|


[SOLO]

  Guitar 1
e|-0-0------------2-2----------0---------------7-5-----------|
b|-0----0---0-0---3---0-3-0----2-2---2---2-----5---5-7-7\----|
g|-1--------------2------------2---2---2---------------------|
d|-2--------------0------------2-----------------------------|
a|-2---------------------------0-----------------------------|
e|-0---------------------------------------------------------|
 |                                                           |
 |                                                           |
 |Guitar 2                                                   |
e|-----------------------------------------------------------|
b|-----------------------------------------------------------|
g|-7/9-7/9-9-9-9--11-11-11/12b-12--12-12-12-12-------11-11\--|
d|-----------------------------------------------------------|
a|-----------------------------------------------------------|
e|-----------------------------------------------------------|

 
[VERSE]

e|-3-3-3--3-3-3-2---3-3-3--3-3-3-2---3-3-3--3-3-3-2----3---2---|
b|-5-5-5--5-5-5-4---5-5-5--5-5-5-4---5-5-5--5-5-5-4----5---4---|
g|-5-5-5--5-5-5-4---5-5-5--5-5-5-4---5-5-5--5-5-5-4----5---4---|
d|-5-5-5--5-5-5-4---5-5-5--5-5-5-4---5-5-5--5-5-5-4----5---4---|
a|-3-3-3--3-3-3-2---3-3-3--3-3-3-2---3-3-3--3-3-3-2----3---2---|
e|-------------------------------------------------------------|


_________________________________________________________

| /    Slide up
| \    Slide down
| x    Muted strum
| ~    Vibrato
| b    Bend
Suggest correction
Give kudos to tab author, rate the tab!
1 2 3 4 5
comments
print report bad tab
guest
You may want to rate the tab now too:
select rating
Wanna post a correction for this tab? Suggest correction