Oops, an error
Loading. Please wait.

Chances Are Bass Tab

49 views 3 this week
no commentswrite comment
1 2 3 4 5
2 more votes to show rating
add to favorites
launch autoscroll
font size
0
reset
guitar tuner
Autoscroll
slow
fast
+/-
esc
set tempo
stop
Help us to improve Ultimate-Guitar.com Take our survey!
×
Author
Difficulty
[Intro]: 
G|-------------------------------|
D|-----5-------3-------3---8---8-|
A|---------3---------------------|
E|-6---------------6-------------|


[Verse 1]: "Chances are, 'cause I wear that silly grin..."
G|-----------------------------------------------------------|
D|-----8-----------3-------5---5-----------3---3---8---5---3-|
A|-6-------6---3-------5-----------3---3---------------------|
E|-----------------------------------------------------------|


[Verse 2]: "Just because my composure sort-of slips..."
G|---------------------------------------------------------------------|
D|------------8-------------------5---5-----------3---3---8------10--8-|
A|--------6-------6---6---5---5-----------3---3---------------8--------|
E|-6--6----------------------------------------------------------------|


[Bridge]: "In the magic of moonlight..."
G|--------------------------------------------------------------|
D|-----------------8---8---5---5-------5-----------3---3--10--8-|
A|-6---6---6---6-------------------3-------3---3----------------|
E|--------------------------------------------------------------|


[Verse 3]: "Guess you feel you'll always be..."
G|------------------------------------------------------------------|
D|-----8-------------------5---5---------1--2--3--------8-----10--8-|
A|-6-------6---6---5---5-----------3--5--------------------8--------|
E|--------------------------------------------------1---------------|


[Bridge]:
G|--------------------------------------------------------------|
D|-----------------8---8---5---5-------5-----------3---3--10--8-|
A|-6---6---6---6-------------------3-------3---3----------------|
E|--------------------------------------------------------------|


[Verse 4]: "Guess you feel you'll always be..."
G|-----------------------------------------------------------------------------------------|
D|-------------------------5---5---------1--2--3---3--1----------5-------------------------|
A|-6-------6---6---5---5-----------3--5------------------5---5-----------------------------|
E|-----6-----------------------------------------------------------------------------------|




Suggest correction
Give kudos to tab author, rate the tab!
1 2 3 4 5
comments
print report bad tab
guest
You may want to rate the tab now too:
select rating
Wanna post a correction for this tab? Suggest correction