Oops, an error
Loading. Please wait.

Automatic Healer Tab

159 views 1 this week
no commentswrite comment
1 2 3 4 5
2 more votes to show rating
add to favorites
launch autoscroll
font size
0
reset
how to read this tab
guitar tuner
Autoscroll
slow
fast
+/-
esc
set tempo
stop
Help us to improve Ultimate-Guitar.com Take our survey!
×
Author
-------------------------------------------------------------------------------
                             Automatic Healer - Johnny Panic
-------------------------------------------------------------------------------
This song is taken from johnny panic's debut album 'The Violent Dazzling',
due for release in october. Johnny Panic are a UK rock band based in the east
end of London. Visit their website www.johnnypanic.com.

Tabbed by: Matt James
Email:

Tuning: Eb Ab Db Gb Bb Eb

Rhythm guitar Intro
|----------------------------------|
|----------------------------------|
|--7-7-7-10----10----------12--12\-|
|--7-7-7-10----10-10----10-12--12\-|
|--5-5-5-8-----8--10----10-10--10\-|
|-----------------8-----8----------|


 Intro                       Riff
|---------------------------|---------------------------------------------|
|---------------------------|------------------------10-------------------|
|---------------------------|-------9-------------12----12-0-------9-10---|
|---------------------------|---0-7-------10-0-10-------------------------|
|---5~~~~~--3H5P3~--3/13\3--|---------0-8--------------------10-12--------|
|---------------------------|---------------------------------------------|

    <  do a volume swell here

Verse

Rhythm - all palm muted

|------------------------------------|
|------------------------------------|
|-7-7-------------5-5-5--------------|
|-7-7----3-3-3----5-5-5----5-5-5-5---|
|-5-5----3-3-3----3-3-3----5-5-5-5---|
|--------1-1-1-------------3-3-3-3---|

Lead - basically cuts first half of the riff

|--------------------------------------|
|-----------------10-------------------|
|--------------12----12-0-------9-10---|
|--------------------------------------|
|-------------------------10-12--------|
|--------------------------------------|


Prechorus

 Rhythm guitar x2
|----------------------------------|
|----------------------------------|
|--7-7-7-10----10----------12--12\-|
|--7-7-7-10----10-10----10-12--12\-|
|--5-5-5-8-----8--10----10-10--10\-|
|-----------------8-----8----------|


 Riff x 2

|---------------------------------------------|
|------------------------10-------------------|
|-------9-------------12----12-0-------9-10---|
|---0-7-------10-0-10-------------------------|
|---------0-8--------------------10-12--------|
|---------------------------------------------|


Chorus

The chorus revoles around a basic cycle of  C F Am G with a load of octave parts
thrown in along the way


Rhythm Guitar #1 (left speaker)

----------------------------------------------------------------------------------------------|
----------------------------------------------------------------------------------------------|
-5--------------------101010\9-\--7-7---------------------------------------------------------|
-5-(x-14)--\-3--------x-x-x-\x-\--X-X-----7-----------------------5--5-5-5/7-/9---5-----------|
-3---------\-3-(x-8)--8-8-8-\7-\--5-5-----7-(x-16)----------------x--x-x-x-x--x---5-(x-6)-----|
-----------\-1----------------------------5-----------------------3--3-3-3/5-/7---3-----------|


Rhythm Guitar #2 (right Speaker)

------------------------------------------------------------------------------------------------|
------------------------------------------------------------------------------------------------|
-5---------------------PMPM---------------------------------------------------------------------|
-5-(x-14)--\-3--------(3-3)--3--------X-X-7-------101010109\-7-7--5--5-5-5/7-/9---9-9-9-9/1111--|
-3---------\-3-(x-6)--(3-3)--3-(x-6)--X-X-7-(x-8)-x-x-x-x-x--x-x--x--x-x-x-x--x---x-x-x-x-x-x---|
-----------\-1--------(1-1)--1--------X-X-5-------8-8-8-8\7\-5-5--3--3-3-3/5-/7---7-7-7-7/8-8---|
                       * *            (Already be at the A5 for the mute)

 Middle 8


|------8---8---8------8---8-----8~------8---8---8------------------------------|
|---5h6--6---6---5~-----5---5h6-----5h6---6---6---5~---------------------------|
|----------------------------------------------------7-5-7~--------------------|
|------------------------------------------------------------------------------|
|------------------------------------------------------------------------------|
|------------------------------------------------------------------------------|
Sounds good with a bit of delay

Followed by 4 rounds of Muted verse Rhythm guitar and 4 mute rounds of the Riff

Outro riff

Just an alternative versions of the main riff

|-------------------------------------------------|
|---------------------------10--------------------|
|-*------12------12------12----12-0--------9-10-*-|  x 3
|-*-0-10----0-10----0-10------------------------*-|
|------------------------------------10-12--------|
|-------------------------------------------------|

then on forth round                                 Reapeat agin then end song on this octave

|-------------------------------------------------|----------|
|------------------------13----12----13----12~----|---13~~---|
|--------12------12-------------------------------|---x------|
|---0-10----0-10----0-10----10----10----10--------|---10~~---|
|-------------------------------------------------|----------|
|-------------------------------------------------|----------|


| /  slide up
| \  slide down
| h  hammer-on
| p  pull-off
| ~  vibrato
| +  harmonic
| x  Mute note
===============================================================================
Suggest correction
Give kudos to tab author, rate the tab!
1 2 3 4 5
comments
print report bad tab
guest
You may want to rate the tab now too:
select rating
Wanna post a correction for this tab? Suggest correction