Oops, an error
Loading. Please wait.

The Rebel Tab

146 views 1 this week
no commentswrite comment
1 2 3 4 5
please rate
add to favorites
launch autoscroll
font size
0
reset
how to read this tab
guitar tuner
Autoscroll
slow
fast
+/-
esc
set tempo
stop
Help us to improve Ultimate-Guitar.com Take our survey!
×
Author
                       Johnny Panic - The Rebel

Tuning - Half step down

Intro

Lead
-------------------------------------|
-------------------------------------|
-------------------------------------|
---9----9----9---9----6---6---6---6--| x4
--7--77---77---77----4--44--44--44---|
-------------------------------------|

Rhythm (0:12)
---------------------|
---------------------|
--9999------6666-----|
--9999-x4---6666-x4--|
--7777------4444-----|
---------------------|

Verse

------------------------|
------------------------|
------------6666--------|
--2222------6666-x4-----|
--2222-x4---4444--------|
--0000------------------|
  xxxx      xxxx

Pre Chorus

--------------------|
--------------------|
--------------------|
-66-44--66--44--66--|
-66-44--66--44--66--|
-44-22--44--22--44--|

Chorus

Lead
-------------------|
-------------------|
-------------------| x alot
---9----9----9---9-|
--7--77---77---77--|
-------------------|

Rhythm
-----------------------------------------|
-----------------------------------------|
----------------------99999999--66666666-|
--77777777--99999999--99999999--66666666-| x4
--77777777--99999999--77777777--44444444-|
--55555555--77777777---------------------|

-------------|
-------------|
-------------|
--666666-99--|
--666666-99--|
--444444-77--|

Intro

Verse (Lead comes in 1:32)

---------------------------------------------------------------------------------|
---------------------------------------------------------------------------------|
---99999999-88888888--99999999--66666666--99999999-88888888--99999999--8--6-8-6--|
---------------------------------------------------------------------------------|
---------------------------------------------------------------------------------|
---------------------------------------------------------------------------------|

Chorus

Solo
----------------------------------------------------------------------------|
----------------------------------------------------------------------------|
--99--11-12-11--9----9-11-12-11-9-11----99--11-12-11--9----9-11-12-14-12-11-|
--xx--xx-xx-xx--x----x-x--xx--x-x-x-----xx--xx-xx-xx--x----x-x--xx-xx-xx-x--| x2
--77--9--10-9---7----7-9--10--9-7-9-----77--9--10-9---7----7-9--10-12-10-9--|
----------------------------------------------------------------------------|

pre chorus

chorus

Intro

Keep Fighting The Good Fight
Suggest correction
Give kudos to tab author, rate the tab!
1 2 3 4 5
comments
print report bad tab
guest
You may want to rate the tab now too:
select rating
Wanna post a correction for this tab? Suggest correction