Oops, an error
Loading. Please wait.

It Wont Be Long And Ill Be Hatin You bass

31 views 1 this week
no commentswrite comment
1 2 3 4 5
3 more votes to show rating
add to favorites
×
Save as Personal and add changes to this tab that will be seen only by you. Learn more ›
×
You can save this tab as Personal to edit and correct it or add notes. All changes will be seen only by you. Learn more »
launch autoscroll
font size
0
reset
guitar tuner
edit
Autoscroll
slow
fast
+/-
esc
set tempo
stop
Tabbed by: 6METAL6BASSIST6
E-mail: petergriffinav@gmail.com

Tuning: 1/4 step up.

G|----------------------------------------------------------------|
D|------------------------------------------------5---------------|
A|5-------------------------------3-------------------------------|
E|----------------------------------------------------------------|

G|----------------------------------------------------------------|
D|----------------------------------------------------------------|
A|5-------------------------------5-----------------------5-------|
E|----------------5-----------5-------------------5---7-------7---|

0:10

G|----------------------------------------------------------------|
D|--------------------------------5---------------5---------------|
A|5---------------5---------------------------5-------------------|
E|------------5---------------------------------------------------|

G|----------------------------------------------------------------|
D|----------------------------------------------------------------|
A|5-------------------------------5-----------------------5-------|
E|----------------5-------------------------------5---7-------7---|

G|------------------------------------------------|
D|------------------------------------------------|
A|5---------------5---------------3---------------|
E|------------------------------------------------|

G|--------------------------------|
D|5-----------5-----------5-------|
A|--------3-----------3-----------|
E|--------------------------------|

G|----------------------------------------------------------------|
D|----------------------------------------------------------------|
A|5-------------------------------5-----------------------4-------|
E|----------------5-----------------------5-------7---------------|

0:29

G|----------------------------------------------------------------|
D|--------------------------------5---------------5---------------|
A|5---------------5-----------------------------------------------|
E|------------5---------------------------------------------------|

G|----------------------------------------------------------------|
D|----------------------------------------------------------------|
A|5-------------------------------5-------------------------------|
E|----------------5-------------------------------5-----------5---|

G|----------------------------------------------------------------|.
D|------------------------------------------------5---------------|.
A|5---------------5---------------3-------------------------------|.
E|----------------------------------------------------------------|.
                                                                   . x2
G|----------------------------------------------------------------|.
D|----------------------------------------------------------------|.
A|5-------------------------------5-----------------------5-------|.
E|----------------5-------------------------------5---7-------7---|.

0:54

G|----------------------------------------------------------------|
D|--------------------------------5---------------5---------------|
A|5---------------5-----------------------------------------------|
E|------------5---------------------------------------------------|

G|----------------------------------------------------------------|
D|----------------------------------------------------------------|
A|5-------------------------------5-----------------------5-------|
E|----------------5-------------------------------5---7-------7---|

G|------------------------------------------------|
D|------------------------------------------------|
A|5---------------5---------------3---------------|
E|------------5-----------------------------------|

G|--------------------------------|
D|5-----------5-----------5-------|
A|--------3-----------3-----------|
E|--------------------------------|

G|----------------------------------------------------------------|
D|----------------------------------------------------------------|
A|5-------------------------------5-----------------------4-------|
E|----------------5-----------------------5-------7---------------|

1:13

G|----------------------------------------------------------------|
D|--------------------------------5---------------5---------------|
A|5---------------5---------------------------5-------------------|
E|------------5---------------------------------------------------|

G|----------------------------------------------------------------|
D|----------------------------------------------------------------|
A|5-------------------------------5-------------------------------|
E|----------------5-----------5-------------------5---------------|

G|----------------------------------------------------------------|
D|------------------------------------------------5---------------|
A|5---------------5---------------3-------------------------------|
E|----------------------------------------------------------------|

G|----------------------------------------------------------------|
D|----------------------------------------------------------------|
A|5-------------------------------5-----------------------4-------|
E|----------------5-----------------------5-------7---------------|

G|----------------------------------------------------------------|
D|------------------------------------------------5---------------|
A|5---------------5---------------3-------------------------------|
E|----------------------------------------------------------------|

G|----------------------------------------------------------------|
D|----------------------------------------------------------------|
A|5-------------------------------5---------------5---------------|
E|----------------5-----------------------------------------------|

1:39

G|----------------------------------------------------------------|
D|3-------3-------3-------3-------3-------3-------3-------3-------|
A|------------3---------------3---------------3-------3-----------|
E|----------------------------------------------------------------|

G|----------------------------------------------------------------|
D|----------------------------------------------------------------|
A|5-------5-------5-------5-------5-------5-------5-------5-------|
E|------------5---------------5---------------5-------5-------5---|

G|----------------------------------------------------------------|
D|3-------3-------3-------3-------3-------3-------3-------3-------|
A|------------3---------------3---------------3-------3-----------|
E|----------------------------------------------------------------|

G|--------------------------------|
D|----------------5---------------|
A|3-------------------------------|
E|--------------------------------|

G|----------------------------------------------------------------|
D|----------------------------------------------------------------|
A|5-------------------------------5-----------------------5-------|
E|----------------5-------------------------------5---7-------7---|

1:59

G|----------------------------------------------------------------|
D|------------------------------------------------5---------------|
A|5---------------5---------------3-------------------------------|
E|----------------------------------------------------------------|

G|----------------------------------------------------------------|
D|----------------------------------------------------------------|
A|5-------------------------------5-------------------------------|
E|----------------5-------------------------------5-----------5---|

G|----------------------------------------------------------------|
D|------------------------------------------------5---------------|
A|5---------------5---------------3-------------------------------|
E|----------------------------------------------------------------|

G|----------------------------------------------------------------|
D|----------------------------------------------------------------|
A|5-------------------------------5-----------------------5-------|
E|----------------5-------------------------------5---7-------7---|

G|----------------------------------------------------------------|
D|------------------------------------------------5---------------|
A|5---------------5---------------3-------------------------------|
E|------------5---------------------------------------------------|

G|--------------------------------|
D|----------------10--9---7-------|
A|5---------------------------5---|
E|--------------------------------|

            
            
Suggest correction
Creating personal tab
Creating personal tab
You can edit any tab online and save it as your Personal.

You can edit, replace or remove any tab part or add personal notes – all changes will be seen only by you.

Personal tabs can be accessed anytime from any device, even offline.
Learn more »
Give kudos to tab author, rate the tab!
1 2 3 4 5
comments
print report bad tab
guest
You may want to rate the tab now too:
select rating
Wanna post a correction for this tab? Suggest correction