Oops, an error
Loading. Please wait.

By The Time I Get To Phoenix Tab

1,912 views 1 this week
no commentswrite comment
1 2 3 4 5
please rate
add to favorites
launch autoscroll
font size
0
reset
how to read this tab
guitar tuner
Tab Pro tools
  • play this tab
  • loop segment
  • change instrument
  • show fretboard
  • metronome
×
Best way to learn
"By The Time I Get To Phoenix"
Autoscroll
slow
fast
+/-
esc
set tempo
stop
Contributor
   Dm7            Dm7-5 G       Cmaj7
E-----||---------------|---------3---|-3--0----------|
B-0-1-||*-3--------3---|-3--3--0-----|-------0-----0-|
G-----||-------5-------|-------------|---------0-----|
D-0-2-||*----3-------3-|----3------0-|----2------2---|
A-----||--5------------|-------------|-3-------------|
E-----||---------5-----|-4-----3-----|-------3-------|


                 Dm7            Dm7-5 G       C           C7
E|-------------|--------------|-------3-5---|-0-------------|
B|-------0-1---|-3--------3---|-3--3--------|-------1-0-----|
G|-------------|------5-------|-------------|-------------3-|
D|----2------2-|----3-------3-|----3------0-|----2------2---|
A|-3-----------|-5------------|-------------|-3-------------|
E|-------3-----|--------5-----|-4-----3-----|-------3-------|


                 F              G9            Em          Am
E|----3----3---|-5--------5---|-5--5----3---|---------------|
B|-------------|--------------|-------0-----|-8--8----8---5-|
G|-------------|-5----5-------|-4-----------|---------------|
D|----2------2-|----3-------3-|----5------5-|----9------9---|
A|-3-----------|--------------|-------------|-7-------------|
E|-------3-----|-5------5-----|-3-----3-----|-------7-------|

                (1)...
                 Dm7                       Bb
E|-------------|-------------|---------------|-------------|
B|---------5---|-6-------6---|-6--6--5-----3-|---------3---|
G|-------------|-------------|---------5-----|-------------|
D|----7------7-|----7------7-|----7------7---|----3------3-|
A|-0-----------|-5-----------|-5-------------|-1-----------|
E|-------0-----|-------5-----|-------5-------|-------1-----|


   G7
E|--------------||
B|-3-----------*||
G|-------3-4----||
D|----5------5-*||
A|--------------||
E|-3-----3------||

  (2)...
   Bb                        G
E|-------------|---------------|-------------|-------------||
B|-3-------3---|-3-----1-----3-|---------3---|-------0--1-*||
G|-------------|---------3-----|-------------|-------------||
D|----3------3-|----3------3---|----5------5-|----5--0--2-*||
A|-1-----------|-1-------------|-------------|-------------||
E|-------1-----|-------1-------|-3-----3-----|-3-----------||



                  By The Time I Get To Phoenix    2 of 4


  (3)...
   Dm7           G7              C             Fmaj7       Dm7
E|-------------|-1--1--1-3---0-|---------0---|---------0-----|
B|-6-------6---|---------------|-------------|----1--3-----3-|
G|-------------|---------------|-------------|---------------|
D|----7------7-|----0------0---|----2------2-|----3------3---|
A|-5-----------|---------------|-3-----------|---------------|
E|-------5-----|-3-----3-------|-------3-----|-1-----1-------|


                 E7          A                 G6
E|-------------|---------0-----|-------------|----------0---|
B|---------3---|----3--3-----5-|---------5---|-3------------|
G|-------------|---------------|-------------|------4-------|
D|----3------3-|----2------2---|----7------7-|----5-------5-|
A|-5-----------|---------------|-0-----------|--------------|
E|-------5-----|-0-----0-------|-------0-----|-3------3-----|


   A
E|--------------|----------|
B|-5--------5---|-5---0--1-|
G|------6-------|----------|
D|----7-------7-|-----0--2-|
A|-0------------|-0--------|
E|--------0-----|----------|
                  h   q  q
  Vamp...
   Dm7                            Cmaj7
E|--------------|---------------|---------------|-------------|
B|----3-----3---|-0-----0-------|-0-----1-0-----|---------0---|
G|------5-------|---5-------0---|-------------0-|-------------|
D|----3-------3-|-----3-------3-|----2------2---|----2------2-|
A|-5------5-----|-5-------5-----|-3-------------|-3-----------|
E|--------------|---------------|-------3-------|-------3-----|


   Dm7                            Cmaj7            F#- G-  C9
E|--------------|---------------|-------------|---------------|
B|----3-----3---|-0-----0-------|-0-------0---|-0---1---2---3-|
G|------5-------|---5-------0---|-------------|-0---2---3---3-|
D|----3-------3-|-----3-------3-|----2------2-|---------------|
A|-5------------|-5-------5-----|-3-----------|---------------|
E|--------5-----|---------------|-------3-----|-3---2---3---3-|


   F             G7             Em           Am
E|----1--------|---3----------|---0------0-----|-------------|
B|-------3-1---|--------5-3---|--------3-----1-|---------1---|
G|-------------|--------------|----------------|-------------|
D|----3------3-|-----5------5-|-----2------2---|----2------2-|
A|-------------|--------------|----------------|-0-----------|
E|-1-----1-----|-3------3-----|-0------0-------|-------0-----|




                  By The Time I Get To Phoenix    3 of 4


 
   Bb                           G7
E|-------------|--------------|----1--------|-1--1---1-3---|
B|----6--------|-6--6---6-8---|---------0---|------0-------|
G|---------7---|------7-------|-------------|--------------|
D|----8------8-|----8-------8-|----0------0-|----0-------0-|
A|-------------|--------------|-------------|--------------|
E|-6-----6-----|-6------6-----|-3-----3-----|-3------3-----|


   Dm7                         Cmaj7
E|----8----8---|-8--5--------|----7---------|-7--------7----|
B|-------------|-------8-6---|---------8----|---------------|
G|-------------|-------------|--------------|---------------|
D|----7------7-|----7------7-|---10------10-|----10------10-|
A|-5-----------|-5-----------|--------------|---------------|
E|-------5-----|-------5-----|-8-----8------|-8------8------|


   Dm7                         Cmaj7
E|----8----8---|-8--5--------|----3--------|---------3---|
B|-------------|-------8-6---|-5-------5---|-------------|
G|-------------|-------------|-------------|-------------|
D|----7------7-|----7------7-|----5------5-|----5------5-|
A|-5-----------|-5-----------|-3-----------|-3-----------|
E|-------5-----|-------5-----|-------3-----|-------3-----|


   F      G#dim   G9             Em7            Am
E|----5-----4---|-5--------5---|------0-------|---------0---|
B|--------------|--------------|-3--------3---|-1-----------|
G|------4-------|------4-------|--------------|-------------|
D|----3-------3-|----3-------3-|----0-------0-|----2------2-|
A|--------------|--------------|--------------|-0-----------|
E|-5------4-----|-3------3-----|-3------3-----|-------0-----|


   Dm            G7            C             F           Dm7
E|----1--1-2---|-3-----1-3---|-0-------0---|---------0-----|
B|-------------|-------------|-------------|----1--3-----3-|
G|-------------|-------------|-------------|---------------|
D|----0------0-|----0------0-|----2------2-|----3------3---|
A|-0-----0-----|-------------|-3-----------|---------------|
E|-------------|-3-----3-----|-------3-----|-1-----1-------|
                                                            

   E7          A                 G6           A
E|---------0-----|-------------|----------0-----|-------------|
B|----3--3-----2-|---------2---|----3---------2-|---------2---|
G|---------------|-------------|------4---------|-------------|
D|----2------2---|----2------2-|----5-------5---|----2------2-|
A|---------------|-0-----------|----------------|-0-----------|
E|-0-----0-------|-------0-----|-3------3-------|-------0-----|




                  By The Time I Get To Phoenix    4 of 4

 
   G6              Amaj7
E|----------0---|--0-----||
B|----3---------|--5-----||
G|------4-------|--6-----||
D|----5-------5-|--6-----||
A|--------------|--0-----||
E|-3------3-----|--------||
comments
We did not receive enough feedback on this tab! Please rate:
print report bad tab
1 2 3 4 5
I want to post or [tab]
guest
You may want to rate the tab now too:
select rating
Please do not post tabs as comments. Select "correction" instead!