Oops, an error
Loading. Please wait.

Secret Agent Man Tab

version 1
version 1

Intro

Whole song

Interactive

14,119 views 6 this week
2 commentsread comments
1 2 3 4 5
x 11
add to favorites
launch autoscroll
font size
0
reset
how to read this tab
guitar tuner
Autoscroll
slow
fast
+/-
esc
set tempo
stop
Help us to improve Ultimate-Guitar.com Take our survey!
×
Intro:
|-------0----0----0----0----0----0------------------------|  Repeat this is many
|---------------------------------------------------------|  times you think is
|----4----5----5----6----5----5---------------------------|  appropriate.It 
|---------------------------------------------------------|  sounds good no
|---------------------------------------------------------|  matter how many
|---------------------------------------------------------|  times you play it!
This is pretty much as good as it gets its all correct.
Suggest correction
comments
print report bad tab
2 comments total.
0 reply
Nirvana_Rocker 10 Nov 28, 2007 05:43 PM

not good

0 reply
l..l,_ (o.O) 10 Aug 06, 2008 09:23 PM

i think it sounds better like this

---0---0---0---0--0--0------------------
-0---1---1---2---1--1-------------------
----------------------------------------
----------------------------------------
----------------------------------------
----------------------------------------

guest
You may want to rate the tab now too:
select rating
Wanna post a correction for this tab? Suggest correction