Oops, an error
Loading. Please wait.

Secret Agent Man Tab

version 1
version 1

Intro

Solo

Whole song

Interactive

71,628 views 180 this week
13 commentsread comments
1 2 3 4 5
excellent!
x 28
add to favorites
launch autoscroll
font size
0
reset
how to read this tab
guitar tuner
Tab Pro tools
  • play this tab
  • loop segment
  • change instrument
  • show fretboard
  • metronome
Autoscroll
slow
fast
+/-
esc
set tempo
stop
Contributor
-------------------------------------------------------------------------------
                             SECRET AGENT MAN - Johnny Rivers
-------------------------------------------------------------------------------
Tabbed by: vgirl610227
Email: trombonefreak@martinamcbride.net

Tuning: Standard

Intro
e|----0----0---0---0----0---0-----------------------|
B|--------------------------------------------------|
G|-4---5----5---6---5---5---------------------------|
D|--------------------------------------------------|
A|--------------------------------------------------|
E|--------------------------------------------------|

Solo
e|---------------------------------------------------------------------|
B|-------------12------------------------------------------------------|
G|----------12----14--12-12----------12---12---14b--12-----------------|
D|----14-14-----------------14p12h14---14---14----------14---12--14-12-|
A|---------------------------------------------------------------------|
E|---------------------------------------------------------------------|

e|---------------------------------------------------------------|
B|------------------12-12-12-15-12-15-12-12-15-------------------|
G|------------12-14---------------------------14-12-14-12-14-----|
D|---14-14-14----------------------------------------------------|
A|---------------------------------------------------------------|
E|---------------------------------------------------------------|

e|------12-12-12-15b-12------------------------------------------|
B|----------------------15b-12-----------------------------------|
G|-----------------------------14b--12-----------12-14-12--------|
D|-------------------------------------14-12-14------------------|
A|---------------------------------------------------------------|
E|---------------------------------------------------------------|

e|---------------------------------------------------------------|
B|---------------------------------------------------------------|
G|-14-14-12-14-12----------12-----12-------12--------------------|
D|------------------14-14-----14-----14--------------------------|
A|---------------------------------------------------------------|
E|---------------------------------------------------------------|

e|---------------------------------------------------------------|
B|-------------12------------------------------------------------|
G|---------12------14--12-12----12-----12------14b-12------------|
D|---14-14-------------------14----14------14----------14--------|
A|---------------------------------------------------------------|
E|---------------------------------------------------------------|

Em                 Am              Em
There's a man who leads a life of danger
    Em                            B7
To everyone he meets he stays a stranger
     Em                      Am
With every move he makes, another chance he takes
Em                Am            Em
Odds are he won't live to see tomorrow

      Bm     Em         Bm     Em
Secret Agent Man, Secret Agent Man
        C           B                         B7                             Em
They've given you a number and taken away your name

Intro x 2

Beware of pretty faces that you find
A pretty face can hide an evil mind
Oh, be careful what you say, or you will give yourself away
Odds are you won't live to see tomorrow

Chorus x 1

Intro x 2

Solo

Chorus x 1

Intro x 2

Swinging on the Riviera one day
And then lying in a Bombay alley next day
Oh, don't you let the wrong words slip, while kissing persuasive lips
Odds are you won't live to see tomorrow

Chorus x 1

Intro x 3


   Em               Am               B7               Bm         B      C
E|-0----------------0----------------2----------------2-------2--------0----|
B|-0----------------1----------------4----------------3-------4--------1----|
G|-0----------------2----------------2----------------4-------4--------2----|
D|-2----------------2----------------4----------------4-------4--------0----|
A|-2----------------0----------------2----------------2-------2--------3----|
E|-0----------------0----------------0----------------0-------2--------0----|


| /  slide up
| \  slide down
| h  hammer-on
| p  pull-off
| ~  vibrato
| +  harmonic
| x  Mute note
==============================================================

=================
comments
print report bad tab
13 comments total. Showing first comments.
0 reply
guitar21@WE wrote on March 5 2005, 12:00 am

Nice Tab

+3 reply
yorkshireterror wrote on August 26 2005, 12:00 am

in the intro isnt it easier to do
-0-0-0-0-0-0
0-1-1-2-1-1-
thats just my opinion...good tab though

+2 reply
chaz man wrote on October 14 2007, 04:50 pm

You can play it that way but if you play it way its tab out you can slide down the E string before the verse.

I want to post or [tab]
guest
You may want to rate the tab now too:
select rating
Please do not post tabs as comments. Select "correction" instead!