Oops, an error
Loading. Please wait.

Secret Agent Man Tab

version 3
version 3

Intro

Solo

Whole song

Interactive

14,177 views 30 this week
no commentswrite comment
1 2 3 4 5
excellent!
x 5
add to favorites
launch autoscroll
font size
0
reset
how to read this tab
guitar tuner
Tab Pro tools
  • play this tab
  • loop segment
  • change instrument
  • show fretboard
  • metronome
Autoscroll
slow
fast
+/-
esc
set tempo
stop
Difficulty
intermediate
Artist     : Johnny Rivers
Song       : Secret Agent Man
Tuning     : Standard

Intro
E|----0---0---0---0---0---0---------|
B|----------------------------------|
G|--4---5---5---6---5---5-----------| x 3
D|----------------------------------|
A|----------------------------------|
E|----------------------------------|

Verse:
Em                 Am              Em
There’s a man who leads a life of danger
    Em                            B7
To everyone he meets he stays a stranger
     Em                      Am
With every move he makes, another chance he takes
Em                Am            Em
Odds are he won’t live to see tomorrow

Chorus:
      Bm     Em         Bm     Em
Secret Agent Man, Secret Agent Man
        C           B7                         Em
They've given you a number and taken away your name

   Em               Am               B7               Bm               C
E|-0----------------0----------------2----------------2----------------0------|
B|-0----------------1----------------4----------------3----------------1------|
G|-0----------------2----------------2----------------4----------------2------|
D|-2----------------2----------------4----------------4----------------0------|
A|-2----------------0----------------2----------------2----------------3------|
E|-0----------------0----------------0----------------0----------------0------|

These are the little lead guitar riffs played throughout each verse.

- Verse one -
E|-12-12-12-8/11-12-------------------- E|-------------------------------------|
B|------------------------------------- B|-11h12-11/12-12—-12\10---------------|
G|------------------------------------- G|-----------------------12-9----------|
D|------------------------------------- D|-------------------------------------|
A|------------------------------------- A|-------------------------------------|
E|------------------------------------- E|-------------------------------------|


E|------------------------------------- E|-------------------------------------|
B|------------------------------------- B|-------------------------------------|
G|---0-2b-r---------------------------- G|---0---2b-r--0-----------------------|
D|-2----------------------------------- D|-2---2-------------------------------|
A|------------------------------------- A|-------------------------------------|
E|------------------------------------- E|-------------------------------------|

E|-------------------------------------|
B|-------------------------------------|
G|-2br-0-------------------------------|
D|-------2-----------------------------|
A|-------------------------------------|
E|-------------------------------------|

- Chorus –

- Intro – (x2)


- Verse two -
E|-12-15-17-17b-17b-r---15-12---------- E|-------10-10-10----------------------|
B|------------------------------------- B|-10/12----------12\10----------------|
G|------------------------------------- G|----------------------12-9-----------|
D|------------------------------------- D|-------------------------------------|
A|------------------------------------- A|-------------------------------------|
E|------------------------------------- E|-------------------------------------|


E|------------------------------------- E|-------------------------------------|
B|------------------------------------- B|-------------------------------------|
G|---0---2b-2-------------------------- G|-------------------------------------|
D|-2---2------------------------------- D|-------------------------------------|
A|------------------------------------- A|-------------------------------------|
E|------------------------------------- E|-------------------------------------|

E|-------------------------------------|
B|-------------------------------------|
G|-2b-r--0-----------------------------|
D|---------2---------------------------|
A|-------------------------------------|
E|-------------------------------------|

- Chorus –

- Intro – (x2)

- Solo -
E|---------------------------------------------------------|
B|---------------------------------------------------------|
G|-------12-14/16-14-12-12----12------------12----14br-12--|
D|-14-14------------------14----14p12h14-14---14---------14|
A|---------------------------------------------------------|
E|---------------------------------------------------------|

E|-----------------------------------------------------------|
B|---------------------------------15---15-------15----------|
G|----------------12-14-14/16-16-16--16----16-16----14p12h14-|
D|-12-14-12-14-14--------------------------------------------|
A|-----------------------------------------------------------|
E|-----------------------------------------------------------|

E|-------------12-12-12-15b-12-------------------------|
B|---------------------------15br--12------------------|
G|--12-14-12-14----------------------14br-12-----------|
D|-------------------------------------------14-12-14--|
A|-----------------------------------------------------|
E|-----------------------------------------------------|

E|-------------------------------------------|
B|-------------------------------------------|
G|--12-14-12-14-14-12-14-12-----12--12--12---|
D|-------------------------14-14--14--14-----|
A|-------------------------------------------|
E|-------------------------------------------|

E|---------------------------------------------------------|
B|---------------------------------------------------------|
G|------12-14/16-14-12-12----12---12----14b-r---12---------|
D|-14-14----------------14----14---14--------------14------|
A|---------------------------------------------------------|
E|---------------------------------------------------------|

- Chorus –

-Intro – (x2)

- Verse three -
E|-12-11b12-r-------------------------- E|-------10----------------------------|
B|------------12-10—8/10--------------- B|-10/12-------12-—12------------------|
G|-----------------------12-9---------- G|-------------------------------------|
D|------------------------------------- D|-------------------------------------|
A|------------------------------------- A|-------------------------------------|
E|------------------------------------- E|-------------------------------------|


E|------------------------------------- E|-------------------------------------|
B|------------------------------------- B|-------------------------------------|
G|---0---2/4--------------------------- G|-0-2b-r--0---------------------------|
D|-2---2------------------------------- D|-------------------------------------|
A|------------------------------------- A|-------------------------------------|
E|------------------------------------- E|-------------------------------------|

E|-------------------------------------|
B|-------------------------------------|
G|-2br-0-------------------------------|
D|-------2-----------------------------|
A|-------------------------------------|
E|-------------------------------------|

- Chorus –

- Intro – (x3)

End with
E|-------0-----------------------------|
B|-------0-----------------------------|
G|-4-----0-----------------------------|
D|-------2-----------------------------|
A|-------2-----------------------------|
E|-------0-----------------------------|
comments
print report bad tab
I want to post or [tab]
guest
You may want to rate the tab now too:
select rating
Please do not post tabs as comments. Select "correction" instead!