Oops, an error
Loading. Please wait.

Born To Lose Chords

9,519 views 39 this week
2 commentsread comments
1 2 3 4 5
accurate
x 3
add to favorites
launch autoscroll
font size
0
reset
transpose
0
reset
simplify chords
display chords
guitar tuner
Autoscroll
slow
fast
+/-
esc
set tempo
stop
Help us to improve Ultimate-Guitar.com Take our survey!
×
Author
INTRO:
e|-------------------------------|
B|-------------------------------|
G|-------------------------------|
D|----0-0-0-0-0---0-0-0-0-0------|
A|--5-5-5-5-5-4---5-5-5-5-5-4----|
E|-------------------------------|.....I think Thats Right

Verse 1
B5
Well, that's just the way it goes
E5
This city is so cold
B5
And I'm ... I'm so-so
E5
That's why I know (I say hit it)

Chorus
F#5       B5
Born to lose
F#5       B5 
Born to lose
F#5       B5 
Born to lose
G5       A5        B5
Baby I was born to lose

Verse 2
Nothing to do
And nothing to say
Only one thing that I know
It's the only way ... I said hit it!

Chorus 

Verse 3
Living in a jungle
It ain't so hard
But living in the city
It'll eat out ... eat out your heart (I said hey)

Chorus 
Born to lose (I said hit it
Born to lose (I said hit it)
Born to lose
Baby I was born to lose
Baby I was born to lose
Baby I was born to lose
Baby I was born to…

Solo Chords
B5    E5......X4 

Play Chorus 3 or 4 times and finish
Suggest correction new What's this?
You can suggest a correction to this tab. Community and Mods will review your correction and vote to approve or reject it.
comments
We did not receive enough feedback on this tab! Please rate:
print report bad tab
1 2 3 4 5
2 comments total.
0 reply
guitarsetzer 178 wrote on December 22 2011, 04:56 pm

I think the intro sounds more like:

e|-----------------|
B|-----------------|
G|-----------------|
D|----5---5---5----|
A|--5---5---5---4--|
E|-----------------| twice

0 reply
mystificus 142 wrote on January 31 2015, 11:54 am

INTRO:
e|-------------------------------|
B|-------------------------------|
G|------0-0-0-0-0-0-0------------|
D|-------0-0-0-0-0-0-------------|
A|--5----------------------------|
E|---------------------9---------|
How about this x 2, bend the 6th string
1/16 to 1/4 tone and hold. Hit the neck
of the guitar softly too when you hit it and hold
your fret hand open and the guitar loose
hanging on the strap so all the strings
feedback ever so slightly...

guest
You may want to rate the tab now too:
select rating
Please do not post tabs as comments. Select "correction" instead!