Oops, an error
Loading. Please wait.

Chinese Rocks Bass Tab

4,200 views 3 this week
2 commentsread comments
1 2 3 4 5
please rate
add to favorites
launch autoscroll
font size
0
reset
guitar tuner
Autoscroll
slow
fast
+/-
esc
set tempo
stop
Help us to improve Ultimate-Guitar.com Take our survey!
×
Author
Difficulty
novice
---------------------------------------------------------------------------
		Johnny Thunders & The HeartBreakers - Chinese Rocks
---------------------------------------------------------------------------

Tabbed By : Chris
e-mail: cmc_41@msn.com

Tuning:Standard

Intro:

G|------------------------------------------------------------|
D|------------------------------------------------------------|
A|-------------------------------1-/3-3--3-3----1-/3-3--3-3---| X2
E|-1-/3-3--3-3----1-/3-3--3-3---------------------------------|


Verse:

G|---------------------|
D|---------------------|
A|---------------------|X1
E|-1-1-1-1-1-1-1-3--3--|

G|-----------------------------------|
D|-----------------------------------|
A|-----------------------------------| X7
E|-1-1-1-1-1-1-1-1--3-3-3-3-3-3-3-3--|

Chorus:


G|------------------------------------|
D|------------------------------------|
A|--5-5-5-5---------------------------| X8
E|----------5-5-5-5-3-3-3-3-5-5-5-5---|

Intro X1

Verse 2:


G|---------------------|
D|---------------------|
A|---------------------|X1
E|-1-1-1-1-1-1-1-3--3--|

G|-----------------------------------|
D|-----------------------------------|
A|-----------------------------------| X4
E|-1-1-1-1-1-1-1-1--3-3-3-3-3-3-3-3--|




Chorus X1

Break:

G|----------------------------------------------------------------|
D|----------------------------------------------------------------|
A|-------------------------------------------5--------------------|
E|-0-3-5-5-5-5-5-5-5-5--0-3-5-5-5-5-5-5-5-5----5-3-3-3-3-3-3-3-3--|

Intro X1

Verse X1

Chorus X2

Outro:

G|------------------------|
D|---------------------2--|
A|-12--0--12--0--12--0----|
E|------------------------|



| /  slide up
| \  slide down
| h  hammer-on
| p  pull-off
| ~  vibrato
| +  harmonic
| x  Mute note
=============================================================================
Suggest correction
Give kudos to tab author, rate the tab!
1 2 3 4 5
comments
print report bad tab
2 comments total.
0 reply
jakethesnakeLP 30 wrote on September 15 2008, 06:57 pm

great stuff

0 reply
jakethesnakeLP 30 wrote on September 15 2008, 06:57 pm

great stuff

guest
You may want to rate the tab now too:
select rating
Please do not post tabs as comments. Select "correction" instead!