Oops, an error
Loading. Please wait.

Get Off The Phone Bass Tab

1,729 views 1 this week
no commentswrite comment
1 2 3 4 5
2 more votes to show rating
add to favorites
launch autoscroll
font size
0
reset
guitar tuner
Autoscroll
slow
fast
+/-
esc
set tempo
stop
Help us to improve Ultimate-Guitar.com Take our survey!
×
Author
Difficulty
novice
-------------------------------------------------------------------------------
			     Get Off The Phone - Johnny Thunders
-------------------------------------------------------------------------------

Tabbed By : Dave R.
e-mail: comrade80@hotmail.com

Tuning: EADG

Verse:

G|---------------------------------------------------------------------------|
D|---------------------------------------------------------------------------|
A|-6777677767776777677767776777--(Do this for a little and then):---7-5-4-2--|
E|---------------------------------------------------------------------------|

Chorus:

G|---------------------------------------------------------------------------|
D|---------------------------------------------------------------------------|
A|------------6-9-6--(x3)----------------------------------------------------|
E|--55-5-77------------------------------------------------------------------|

Post Chorus:

G|---------------------------------------------------------------------------|
D|---------------------------------------------------------------------------|
A|--677767776777------------(x2)---------------------------------------------|
E|-----------------5-7-------------------------------------------------------|

Then verse, chorus, post chorus (x2)

Bridge:

G|---------------------------------------------------------------------------|
D|---------------------------------------------------------------------------|
A|--------------7--------------6-9-6------6-9-6------------------------------|
E|--9-7-5--9-7------9-7-5-5-77---------77------------------------------------|

Then Verse and Chorus

End with A|--6777--| for a while


Any questions or comments, please email me.

| /  slide up
| \  slide down
| h  hammer-on
| p  pull-off
| ~  vibrato
| +  harmonic
| x  Mute note
Suggest correction
Give kudos to tab author, rate the tab!
1 2 3 4 5
comments
print report bad tab
guest
You may want to rate the tab now too:
select rating
Wanna post a correction for this tab? Suggest correction