Oops, an error
Loading. Please wait.

Go Back To Go Tab

607 views 3 this week
no commentswrite comment
1 2 3 4 5
1 last vote to show rating
add to favorites
launch autoscroll
font size
0
reset
how to read this tab
guitar tuner
Autoscroll
slow
fast
+/-
esc
set tempo
stop
Help us to improve Ultimate-Guitar.com Take our survey!
×
***On the verses A - G* reach over 2 frets and tap the top fretted string (eg. on A tap 
G string on the 4th fret and do the same on g* but on the A string)

G*
------|
-2--2-|
-2--2-|
-2--2-|
-2--3-|
-x--x-|

  A  G  F# F  A  G  F# F
E----3--2--1-----3--2--1--|
A-2-----2--1--2-----2--1--|
D-2-----3--2--2-----3--2--|
G-2-----4--3--2-----4--3--|
B----2--4--3-----2--4--3--|
E-x--3--x--x--x--3--x--x--|
A              G*
Go, go back to go
A                            G*
Did you ever think you would know?
D           E
What do you know?
D            E
You think it shows?
D        E   G
That you know?
Go back to go
E----3--2--1-----3--2--1--|
A-2-----2--1--2-----2--1--|
D-2-----3--2--2-----3--2--|
G-2-----4--3--2-----4--3--|
B----2--4--3-----2--4--3--|
E-x--3--x--x--x--3--x--x--|
A                 G*
Time, times going on
A                    G*
You, you should have known
D           E
What do you know?
D         E
Life’s so slow
D         E
You wanna go, back to go
E----3--2--1-----3--2--1--|
A-2-----2--1--2-----2--1--|
D-2-----3--2--2-----3--2--|
G-2-----4--3--2-----4--3--|
B----2--4--3-----2--4--3--|
E-x--3--x--x--x--3--x--x--|
Suggest correction
Give kudos to tab author, rate the tab!
1 2 3 4 5
comments
print report bad tab
guest
You may want to rate the tab now too:
select rating
Wanna post a correction for this tab? Suggest correction