Oops, an error
Loading. Please wait.

Mia Bass Tab

273 views 1 this week
no commentswrite comment
1 2 3 4 5
please rate
add to favorites
launch autoscroll
font size
0
reset
guitar tuner
Tab Pro tools
  • play this tab
  • loop segment
  • change instrument
  • show fretboard
  • metronome
×
Best way to learn
"Mia"
Autoscroll
slow
fast
+/-
esc
set tempo
stop
Contributor
Difficulty
novice
-------------------------------------------------------------------------------
			     M.I.A. - Johnny Thunders
-------------------------------------------------------------------------------

Tabbed By : Dave R.
e-mail: comrade80@hotmail.com

Tuning: EADG


Intro/Chorus:

G|---------------------------------------------------------------------------|
D|---------------------------------------------------------------------------|
A|-------3-333---------5-555--------3-333------------------------------------|
E|--33-----------33-----------33------------5555555555555555-----------------|

Verse:

G|---------------------------------------------------------------------------|
D|-------------------------------7777---------------------------------7-5----|
A|------------------------------------------------------------------------7-5|
E|--2222222222222222-555555555555------020-2222222222222222-555555555555-----|

Then Chorus, Then Verse, Then Chorus

Then Bridge: (x2)

G|---------------------------------------------------------------------------|
D|---------------------------------------------------------------------------|
A|-------7-777--------9-999--------7-777-------------------------------------|
E|--77-----------77-----------77-------------5555555555555555----------------|

Then Verse, Then Chorus a few times till end.

I believe the verse is correct but I'm certain the rest of the tab is.
Any questions or comments please email me.



| /  slide up
| \  slide down
| h  hammer-on
| p  pull-off
| ~  vibrato
| +  harmonic
| x  Mute note
comments
We did not receive enough feedback on this tab! Please rate:
print report bad tab
1 2 3 4 5
I want to post or [tab]
guest
You may want to rate the tab now too:
select rating
Please do not post tabs as comments. Select "correction" instead!