Oops, an error
Loading. Please wait.

Mia Tab

1,243 views 1 this week
no commentswrite comment
1 2 3 4 5
2 more votes to show rating
add to favorites
launch autoscroll
font size
0
reset
how to read this tab
guitar tuner
Autoscroll
slow
fast
+/-
esc
set tempo
stop
Help us to improve Ultimate-Guitar.com Take our survey!
×
Author
----------------------------------------------------------------------------
                             MIA - Johnny Thunders
----------------------------------------------------------------------------
Tabbed by: L.A.M.F. 77'


Tuning: Standard

  Intro/Chorus: Guitar 1

e|-------------------------------------------------------------------------|
B|-------------------------------------------------------------------------|
G|-------5---5--5--5-------7---7--7--7-------5---5-------------------------|
D|---5---5---5--5--5---5---7---7--7--7---5---5---5----2--2--4--2-----------|
A|---5---3---3--3--3---5---5---5--5--5---5---3---3/---0--0--0--0-----------|
E|---3-----------------3-----------------3---------------------------------|

e|------------------------------------|
B|------------------------------------|
G|------------------------------------|
D|---2--2-------2---2--2--4--2--------|
A|---0--0--3hb--0---0--0--0--0---14\--|
E|------------------------------------|

e|-------------------------------------------------------------------------|
B|-------------------------------------------------------------------------|
G|-------5---5--5--5-------7---7--7--7-------5---5-------------------------|
D|---5---5---5--5--5---5---7---7--7--7---5---5---5----2--2--4---2--2--4--2-|
A|---5---3---3--3--3---5---5---5--5--5---5---3---3/---0--0--0---0--0--0--0-|
E|---3-----------------3-----------------3---------------------------------|

  Verse 1: Guitar 1

e|------------------------------------------------------------|
B|------------------------------------------------------------|
G|------------------------------------------------------------|
D|---4--4--4--4--------------2--4---2--2--4--2---4--4--4--4---|
A|---4--4--4--4---0--0--3h4--0--0---0--0--0--0---4--4--4--4---|
E|---2--2--2--2----------------------------------2--2--2--2---|

  Verse 1: Guitar 2

e|------------------------|---5---5---5---5-------------------|
B|---2----2----2----2-----|---5---5---5---5---7---5-----------|
G|---4fb--4fb--4fb--4fb---|-------------------7---5-----------|
D|------------------------|-----------------------------------|
A|------------------------|-----------------------------------|
E|------------------------|-----------------------------------|

  Verse 1: Guitar 1

e|------------------------------------|
B|------------------------------------|
G|------------------------------------|
D|--------------2--4-------------2----|
A|---0--0--3h4--------0--0--3h4-------|
E|------------------------------------|

  Chorus: Guitar 1

e|-------------------------------------------------------------------------|
B|-------------------------------------------------------------------------|
G|-------5---5--5--5-------7---7--7--7-------5-----------------------------|
D|---5---5---5--5--5---5---7---7--7--7---5---5----2--2--4--2---2--2--4--2--|
A|---5---3---3--3--3---5---5---5--5--5---5---3/---0--0--0--0---0--0--0--0--|
E|---3-----------------3-----------------3---------------------------------|

  Verse 2 : Guitar 1

e|------------------------------------------|
B|------------------------------------------|
G|------------------------------------------|
D|---4--4--4--4---2--2--4--2---2--2--4--2---|
A|---4--4--4--4---0--0--0--0---0--0--0--0---|
E|---2--2--2--2-----------------------------|

  Verse 2 : Guitar 2

e|------------------------------------------|
B|------------------------------------------|
G|--------------------------2---------------|
D|----------------2---2h4-------2h4---2-----|
A|---0--0--3h4------------------------------|
E|------------------------------------------|

  Verse 3 : Guitar 1


e|------------------------------------------------|
B|------------------------------------------------|
G|------------------------------------------------|
D|---4--4--4--4--------------2--4-------------2---|
A|---4--4--4--4---0--0--3h4--------0--0--3h4------|
E|---2--2--2--2-----------------------------------|

  Verse 3 : Guitar 2

e|----------------------------5---5---5---5--------------------------------|
B|---14----14----14----14-----5---5---5---5---7---5------------------------|
G|---16fb--16fb--16fb--16fb-------------------7---5------------------------|
D|-------------------------------------------------------------------------|
A|-------------------------------------------------------------------------|
E|-------------------------------------------------------------------------|


Chorus: Guitar 1

e|-------------------------------------------------------------------------|
B|-------------------------------------------------------------------------|
G|-------5---5--5--5-------7---7--7--7-------5-----------------------------|
D|---5---5---5--5--5---5---7---7--7--7---5---5----2--2--4--2---2--2--4--2--|
A|---5---3---3--3--3---5---5---5--5--5---5---3/---0--0--0--0---0--0--0--0--|
E|---3-----------------3-----------------3---------------------------------|

  Bridge: Guitar 1


e|-------------------------------------------------------------------------|
B|-------------------------------------------------------------------------|
G|-------9---9--9-------11---11--11-------9---9--9-------------------------|
D|---9---9---9--9---9---11---11--11---9---9---9--9----2-------2------------|
A|---9---7---7--7---9---9----9---9----9---7---7--7/---0--3h4---------------|
E|---7--------------7-----------------7------------------------------------|

e|-------------------------------------------------------------------------|
B|-------------------------------------------------------------------------|
G|-------9---9--9-------11---11--11-------9---9--9-------------------------|
D|---9---9---9--9---9---11---11--11---9---9---9--9----2--------------------|
A|---9---7---7--7---9---9----9---9----9---7---7--7/---0--------------------|
E|---7--------------7-----------------7------------------------------------|

  Bridge: Guitar 2

e|---7---7---7-------------7---7---7---7------------7-----------4/5--------|
B|---7---7---7---9---7-----7---7---7---7---9--------7---9---7---4/5--------|
G|---------------9---7~/-------------------9---7~-------9---7---5/6---13\--|
D|--------------------------------------------------------------6/7---14\--|
A|-------------------------------------------------------------------------|
E|-------------------------------------------------------------------------|

  Verse 4 : Guitar 1

e|-------------------------------------------------|
B|-------------------------------------------------|
G|-------------------------------------------------|
D|---4--4--4--4---2--2-------2------2--2-------2---|
A|---4--4--4--4---0--0--3h4--0--4---0--0--3h4--0---|
E|---2--2--2--2------------------------------------|

e|--------------------------------------------------|
B|--------------------------------------------------|
G|--------------------------------------------------|
D|---4--4--4--4---2--2-------2--4---2--2-------2----|
A|---4--4--4--4---0--0--3h4---------0--0--3h4-------|
E|---2--2--2--2-------------------------------------|


  Verse 4 : Guitar 2

e|-------------------------------5---5---5---5-----------|
B|---14-----14-----14-----14-----5---5---5---5---7---5---|
G|---16fb---16fb---16fb---16fb-------------------7---5---|
D|-------------------------------------------------------|
A|-------------------------------------------------------|
E|-------------------------------------------------------|

  Outro: Both Guitars
e|---------------------------------------------------|
B|---------------------------------------------------|
G|-------9---9--9-------11---11--11-------9---9--9---|
D|---9---9---9--9---9---11---11--11---9---9---9--9---|
A|---9---7---7--7---9---9----9---9----9---7---7--7---|
E|---7--------------7-----------------7--------------|


 This is the version from the Jet Boy Anthology compilation...other versions may vary.  
carefully to get the timing right for guitar 2.  Throw in some extra slides for Johnny.
Suggest correction
Give kudos to tab author, rate the tab!
1 2 3 4 5
comments
print report bad tab
guest
You may want to rate the tab now too:
select rating
Wanna post a correction for this tab? Suggest correction